E---|-------------------------------------------------------------------------------
B---|-------------------------------------------------------------------------------
G---|--------------------5-------------------------------3p2------------------------
D---|-----0--2--3-----0-----7--53--2-----------2--3----------5--3--5b6--3----------
A---|--0-------------------------------5--3--------------------------------1--------
E---|-------------------------------------------------------------------------------



E---------------------------------|-------------------------------------------------
B------------------------------8--|-------------------------------------------------
G---2--3-----5b6--3--2-------5----|-------------------------------------------------
D----------------------5/7--------|-------------------------------------------------
A---------------------------------|-------------------------------------------------
E---------------------------------|-------------------------------------------------

My version of the My Little Empire intro by the Manic Street Preachers. The only part
where I'm not exactly sure is on the last bend. Im not sure if he bends or what here.

feedback [email protected]




Ваше мнение



Капча