MOTOWN JUNK

[Intro]

e -------------------5------------------------|
B ------10-----8-----7-----7---7-bu-(8)-rb----|
G ------11-----9-----------6---------------6--|
D --0-0----0-0---0-0---0-0---0----------------|
A --------------------------------------------|
E --------------------------------------------|

e --------------------5-5-------|
B --10-10-----8-8-----7-7----7--|
G --11----11-9---9-------6----|
D --0---------------------------|
A ------------------------------|
E ------------------------------|

[Verse]

D5
Never ever wanted to be with you
D5
All you ever gave me was the bordom I suffocate in
G5 G5
D5
Adrift in cheap dreams don't stop the rain
D5
Numbed out in piss towns just wanna dig their graves
G5 G5

[Bridge]

D5 G5 B5 A5
A5
Motown, Motown Junk
D5 G5 B5 A5
A5
I laughed when Lennon got shot
G5 A5
21 years of living and nothing means anything to me

[Verse 2]

Dsus4 D
Motown Junk a lifetime of slavery
Dsus4 D
Songs of love echo underclass betrayal
Dsus4 D
Stops your heart beating for 168 seconds
Dsus4 D
Stops your brain thinking for 168 seconds

[Chorus]

Dsus4 D Dsus4 D
Motown Junk Motown Junk

Dsus4 D Dsus4 D
Motown Junk Motown Junk

D5 A5
Motown


Ваше мнение



Капча