Manic Street Preachers
Mausoleum

Track 8 - The Holy Bible
G-|---------------------------------------------------------------------
D-|-------------2-------------------------------------------------------
A-|-----------4---4-----------------------------------------------------
E-|-3-3-3-3-3-----------------------------------------------------------
Verse Riff

G-|---------------------------------------------------------------------
D-|---------------------------------------------------------------------
A-|-4-4-4-4-2-2-2-2-0---0---0---0---------------------------------------
E-|-------------------4---4---4---4-2-4-2-4-2-4-2-4-2-4-2-4-2-----------
Chorus

G-|---------------------------------------------------------------------
D-|---------------------------------------------------------------------
A-|-4-4-4-6-6-6-6--6-6-4-4-4-4-4-3-3-3-3-3-3-4-3------------------------
E-|---------------------------------------------------------------------
No birds bit

G-|---------------------------------------------------------------------
D-|---------------------------------------------------------------------
A-|-4---4---4---4---4---4---4-------------------------------------------
E-|---3---3---3---3---3---3---3-----------------------------------------
End Part
transcribed by Adam and Paul Firth




Ваше мнение



Капча