name: Elliot
artist: Manic Street Preachers
SongTitle: The Masses Against The Classes
Tabs:
#-----------------PLEASE
NOTE-------------------------------------------------#
#This file is the author’s own work and represents their interpretation
of the#
#song. You may only use this file for private study, scholarship, or
research.#
#-----------------------------------------------------------------------------#

THE MASSES AGAINST THE CLASSES-MANIC STREET PREACHERS
Transcribed By :- ELMO

Vers / Chorus Chords / Middle 8
chords/ Solo
E G# B F# / G# / E / B / F# / B A D
C /
e:------------------/----------/---------/---------/---------/----------------/-----
B:------------------/----------/---------/---------/---------/-----2--7--5----/-----
G:--1-------4-------/----------/---------/-4-4-4-4-/---------/-----2--7--5----/-----
D:--2---6---4---4---/--6-6-6-6-/-2-2-2-2-/-4-4h6-4-/-4-4-4-4-/--4--2--7--5----/----6
A:--2---6---2---4---/--6-6h8-6-/-2-2h4-2-/-2-2-2-2-/-4-4h6-4-/--4--0--5--3----/--4--
E:--0---4-------2---/--4-4-4-4-/-0-0-0-0-/---------/-2-2-2-2-/--2-------------/-----
X4 x4 x4 x4
/ I`m n
(G# mode5)

----------------------|
---------7bu---7bu----|
--6bu--------6-----4--|
bu----4---------------|
----------------------|
----------------------|
ot sure about the rest/
Talking:-
E E E E E E
Intro- AHHH AHHH AHHH AHHH AHHH 1 2 3 4 AHHH
Vers1. G#
Hello it’s us again
E
Were still so in love with you
B
And yes we mean it too
F#
Yes were so in love with you
G#
Hello it’s us again
E
You thought you were our friends
B
Success is an ugly word
F#
Especially in your tiny world
Chorus.
G#
The Masses
E
Against the classes
B
I’m tired of giving a reason
F#
When the future is what we believe in
G#
We love the winter
E
It brings us closer together
Middle 8. B A D C
Ahh Ahh Ahh Ahh
Vers2.
G#
So can you hurt us any more
E
Can you feel like it was before
B
Or are you lost forever more
F#
Messed up and dead on alcohol
G#
Hello fond farewell my dear
E
I hope you hear this nice and clear
B
Our love is unconditional
F#
Our hate is yours to feed upon
(Chorus)
E E E E E E
Intro AHHH AHHH AHHH AHHH AHHH AHHH
Solo (G# minor)
(Chorus) E
Then end with another intro – AHHH x6

Feel free to comment:-
E-Mail [email protected]




Ваше мнение



Капча