From: Starla Iha
To: olga
Subject: Kevin Carter TAB
Artist: Manic Street Preachers
Song: Kevin Carter
Album: Everything Must Go
Hi there! This is one of the three songs on "Everything
Must Go" that was written by Richey. He co-wrote a few
others on the album as well but you probably know that.
Kevin Carter was a photographer who took a picture of a
vulture standing near a dying child. This photo won him
the Pulitzer prize and he became very famous. He was not
happy and so killed himself because he couldn't live with
the thought that instead of helping the child he
photographed it and left it to die.
Chords Used:
------------
Fsus2 - xx3563
Fsus2/E - xxx563
Eb6/9 - xxx566
D7 - x575xx
Dbmaj7 - x465xx
Db5 - x466xx
Db - x4666x
G5 - 355xxx
Bb/C - x3x331
Cm11 - x3x341
Intro
-----
Fsus2
e-3--3--3-3--3-|-3--3---------- }
B-6--6--6-6--6-|-6--6---------- }
D-5--5--5-5--5-|-5--5---------- }
G-3--3--3-3--3-|-3--3------1-3- }X2
A--------------|-------2b3----- }
E--------------|--------------- }
Verse
-----
Fsus2/E
e-3--3--3-3--3|-3--3--3-3-3-|-3--3--3-3--3-|-
B-6--6--6-6--6|-6--3--6-6-6-|-6--6--6-6--6-|-
D-5--5--5-5--5|-5--3--5-5-5-|-5--5--5-5--5-|-
G-------------|-------------|--------------|-
A-------------|-------------|--------------|-
E-------------|-------------|--------------|-
Hi Time Ma-ga-zine Hi Pul-lit-zer
Eb6/9
e-3--3--3-3---|-6--6--6-6--6-|-6--6--6-6-6------------
B-6--6--6-6-0-|-6--6--6-6--6-|-6--6--6-6-6-0----------
D-5--5--5-5-0-|-5--5--5-5--5-|-5--5--5-5-5-0----------
G-----------0-|--------------|-------------0----------
A-------------|--------------|------------------------
E-------------|--------------|------------------------
Prize. Tri-bal scars in tech-ni-col-
D7 Dbmaj7 Db5 Db
e---------------|---------------|---------------------
B---------------|---------------|----------6-6-6------
D-5--5--5-5-x-5-|-5--5--5-5-x-6-|----------6-6-6------
G-7--7--7-7-x-7-|-6--6--6-6-x-6-|--6-6-6-6-6-6-6------
A-5--5--5-5-x-5-|-4--4--4-4-x-4-|--4-4-4-4-4-4-4------
E---------------|---------------|---------------------
- our. Bang, bang club A-K fort-y se-ven
G5 Bb/c Cm11
e------------1-|-1-------------|-------------------------
B-6--6-------3-|--3---3b4------|------------------------------
D-6--6-------3-|---0-----3-----|----------------------------
G-6--6-5-5-5---|-----------5---|-----------------------------
A-4--4-5-5-5-3-|-------------3-|------------------------------
E------3-3-3---|-------------3-|---------------------------
ho - ur
CHORUS
------
(1st time)
Db5 G5 Bb/C
e-------------1---1-1-1-1-|-------
B-------------3---4-4-4-4-|-------
D-6--6--------3---3-3-3-3-|-------
G-6--6-5--5-5-------------|-------
A-4--4-5--5-5-3---3-3-3-3-|-------
E------3--3-3-------------|-------
Kev-in Car - ter.
It's basically the same all the way through but there are some
bits that are slightly different. If anyone REALLY wants these tabbed out
then just e-mail me with what you want tabbed out and I'll see what I can do.
Lyrics
------
HI TIME MAGAZINE HI PULITZER PRIZE
TRIBAL SCARS IN TECNICOLOUR
BANG BANG CLUB AK 47 HOUR
KEVIN CARTER
HI TIME MAGAZINE HI PULITZER PRIZE
VULTURE STALKED WHITE PIPED LIE FOREVER
WASTED YOUR LIFE IN BLACK AND WHITE
KEVIN CARTER x3
THE ELEPHANT IS SO UGLY
MACHETES HIS BED KEVIN CARTER KAFIR LOVER FOREVER
CLICK CLICK CLICK CLICK CLICK
CLICK HIMSELF UNDER
KEVIN CARTER x3




Ваше мнение



Капча