Bass Tab

Artist: Manic Street Preachers
Track: Freedom Of Speech Won't Feed My Children
Album: Know Your Enemy
Transcribed By Jonathan Hamilton

Verse
G||---------------------------------------------------||
D||*--1--1--1--1-------------------------------------*||
A||*--------------4--4--4--4--1--1--1--1--1--1--1--1-*||
E||---------------------------------------------------||


Chorus ...Bootleg Clothing
G||----------------------------------------------------------||----------------------------------
D||*--------------------------------------------1--1--1--1--*||----------------------------------
A||*--1--0--------------------------4--4--4--4--------------*||--4--4--4--4--1--1--1--1--1--1--1-
E||---------4--4--4--4--2--2--2--2---------------------------||----------------------------------

This is a very simple song and this is just about it.

If you have any comments or suggestions please e-mail me at

[email protected]




Ваше мнение



Капча