Found That Soul
(Bradfield, Moore, Wire)

Intro
I can't be bothered with all that (chord)5 business so heres the tab
Do this for first part of the verse
Riff 1
e-
B-
G-
D-9-9-9-6-6-6
A-7-7-7-4-4-4
E------

Riff2
So stranded here
With all the scum
e-
B-
G-
D-9-9-9
A-7-7-7-9-9-9
E-------7-7-7

Back to Riff 1

Chorus
Riff 3
But I Found that soul
D-
A-7-7-7-7-6-6-6-6-11-11-11-11-11-11
E-5-5-5-5-4-4-4-4-9-9-9-9-9-9-9-9
Yeah I found that home, But I found that soul

G--7-7-7-7- (try somethin about around 7)

But I found that soul Yeah I found that now, but I found that soul

Verse as verse 1
Chorus as above

Solo

G-9-9-9-9-9-9-11-11-11-11-11-13-13-13-13-13-13-14-14-14-14

G-13-13-13-11-11-11-9-9-9-9-8-8-8-8-2-2-2-4-4-4

Hight part I'm not sure, play something on the top three strings around 15

End of solo

B-10-10-1-8-8-8-8-8-5-5-5-5-13-13-13-6-6-6-13-13-13-13-13
G-9-9-9-9-7-7-7-7-7-4-4-4-4-12-12-12-5-5-5-12-12-12-12-12

Back to Chorus

End
Riff 1
Show me a wonder
Show me a wonder
Show me a wonder
Show me a wonder
Transfer the 4 onto the E string at 9 and slide down at the end

Any questions, queries or problems E-mail me at [email protected]




Ваше мнение



Капча