Manic Street Preachers - Found That Soul
Hi im Steve Melville,I play for a band called the snugglewhippers who are amazing.
Ive never written a tab before but lookin at the solo for this song written in other
tabs i found a bit of a bitch to play and all the other tabs ive seen seem to have
the quick bit in the middle completely out so I have listened to the song a bit,
re-tabbed it into the pentatonic scale to make it easier and tried to corect the
speedy middle bit along with some other bits I thought were wrong.
the rhythm for most of it is 1,1234 so for the beginning which is 5 lots of 14,
there is a pause between the first and second. The 10 lots of 13 are done in
the same way,treat as two lots of 5.
The pentatonic starts with the first fingure on 13th fret,D string.
TIME = 1min 58 secs
e--------------------------------------------------------------------------|
b--------------------------------------------------------------------------|
G--------------------------------13-13-13-13-13-13-13-13-13-13-14-14-14-14-|
D--14-14-14-14-14-16-16-16-16-16-------------------------------------------|
A--------------------------------------------------------------------------|
E--------------------------------------------------------------------------|
(2mins 11 secs)
e--------------------------------------------------------------------------|
b-----------------------------------------------14-14-16po14-14ho16po14----|
G--13-------------------------------------------------------------------15-|
D-----16-16-16-16-14-13-13-13-13-------------------------------------------|
A--------------------------------14-16-16-16-16----------------------------|
E--------------------------------------------------------------------------|
e-17-17-18po17-17ho18po17--------------------------------------------------|
b----------------------------14-14-14-14-14-------14-14-14-14-14-16-17-----|
G-------------------------15----------------15-16--------------------------|
D--------------------------------------------------------------------------|
A--------------------------------------------------------------------------|
E--------------------------------------------------------------------------|
(2mins 17 secs)
e--------------------------------------------------------------------------|
b------------------------------------------14-14-14-14-14------------------|
G---------------------------------------------------------15-16------------|
D--14ho16-16^18^16po14-----------------------------------------------------|
A----------------------14ho16-16^18^16po14---------------------------------|
E--------------------------------------------------------------------------|
e--------------------------------------------------------------------------|
b--14-14-14-14-14----------------------------------------------------------|
G--------------------------------------------------------------------------|
D--------------------------------------------------------------------------|
A--------------------------------------------------------------------------|
E--------------------------------------------------------------------------|
Key
po = pull off
ho = hammer on
^ = bend
Hope this is all alright for you I think its about right. Email me to let me
know what you think, for any corrections or comments to
[email protected]
Thanks - Snugglewhipper Steve




Ваше мнение



Капча