////FASTER//// - Written by the Manic Street Preachers
tabbed by Karim Adab
Music - James Dean Bradfield/Sean Moore/Nicky Wire
Lyrics - Richey James
Faster; track 9, The Holy Bible
CHORDS :
E e
D = x00232
G#5 = 466xxx
F#5 = 244xxx
E5 = 022xxx
G# = x/11/13/13/x/x
F# = x/9/11/11/x/x
E* = x799xx
E = 0221000
D = x577xx
C# = x466xx
B = x244xx
Em11 = x/x/x12/12/12 in 3 rapid bursts after the chorus
INTRO
The intro is something like :
e---------17--17--17--17-------------|
b------------------------------------|
g-----------14--14--14--14--16-------|
d-------------------------------14---|
The verse is a continuous riff over an A chord in the background.
Play the D# on the A string 6th fret } Both palm muted by picking hand
Followed by the A string open }
in this rythmn :
Riff 1
G-|-----------|---------------|-----------|-------------------------|
D-|-6---------|-6-------------|-6---------|-6-----------------------|
A-|---0--0--0-|---0-0--0-0--0-|---0--0--0-|---0--0------------------|
E-|-----------|---------------|-----------|---------------5-6-7-0*--| *




Ваше мнение



Капча