Manic Street Preachers - DRUG DRUG DRUGGY
Tabbed by Fung Mak [email protected] and Sean Sorby [email protected]

[INTRO]
guitar
e||-------------------------------------------------|
B||-------------------------------------------------|
G||-5-----8-----------------5-----3-----------------|
D||-5-----8-----6-----5-----5-----3------6-----5----|
A||-3-----6-----6-----5-----3-----1------6-----5----|
E||-------------4-----3------------------4-----3----|

bass
G||-------------------------------------------------|
D||---------------------------------------0-h2-4----|
A||-------------------------------------------------|
E||-------------------------------------------------|

guitar
e||-------------------------------------------------|
B||-------------------------------------------------|
G||-4-----6-----------------4-----2-----------------|
D||-4-----6-----5-----4-----4-----2------5-----4----|
A||-2-----5-----5-----4-----2-----0------5-----4----|
E||-------------3-----3------------------3-----2----|

bass
G||-------------------------------------------------------|
D||-------------------------------------------------------|
A||-2-2--2-5--2-5-2--------------2-2---2----2--2----------|
E||-----------------3-3-3-2----------5----5------3-3-3-2--|

[VERSE 1]

MAIN BASS VERSE RIFF
G||-------------------------------------------------------|
D||-------------------------------------------------------|
A||-2-2--2-5--2-5-2--------------2-2--2-0--0-2-0----------| (main bass riff)
E||-----------------3-3-3-2--0-2-----------------3-3-3-2--| x2
B5 D5 G5 F#5
So much fun just lying in my bed
B5 A5 G5 F#5
No more sunshine
B5 D5 G5 F#5
So much fun to be had in my head
B5 A5 G5 F#5
No more sunshine
[BRIDGE]
e||-----------------------------------------------------|
D||-----------------------------------------------------|
G||-----------------------------------------------------|
B||-5--5--5-4-2--5--5--5-4-2---7--7--7-6-5--7--7--7-6-5-|
A||-5--5--5-4-2--5--5--5-4-2---7--7--7-6-5--7--7--7-6-5-|
E||-3--3--3-2-0--3--3--3-2-0---5--5--5-4-3--5--5--5-4-3-|
I can't face sunlight and dirt outsii-ei-ide
PM
e||----------------------------------------------------|
D||----------------------------------------------------|
G||----------------------------------------------------|
B||-5--5--5-4-2--5--5--5-4-2---4-4-4-4-4-4-4-4-4-4-4-4-|
A||-5--5--5-4-2--5--5--5-4-2---4-4-4-4-4-4-4-4-4-4-4-4-|
E||-3--3--3-2-0--3--3--3-2-0---2-2-2-2-2-2-2-2-2-2-2-2-|
Wanna stayin 666 Where this darkness don't lie-ei


[CHORUS]
e||------------------------------------------------------|
D||------------------------------------------------------|
G||----------------------------9--9---8-8-6-6-6--4-4/6-6-|
B||-/9--9--6--4--6---4-4/6-6---9--9---8-8-6-6-6--4-4/6-6-|
A||-/9--9--6--4--6---4-4/6-6---7--7---6-6-4-4-4--2-2/4-4-|
E||-/7--7--4--2--4---2-2/4-4-----------------------------|
Drug Drug Druggy Got a feelin sweet ho-oney
e||------------------------------------------------------|
D||------------------------------------------------------|
G||----------------------------9--9---8-8-6-6-6--4-4/6-6-|
B||-/9--9--6--4--6---4-4/6-6---9--9---8-8-6-6-6--4-4/6-6-|
A||-/9--9--6--4--6---4-4/6-6---7--7---6-6-4-4-4--2-2/4-4-|
E||-/7--7--4--2--4---2-2/4-4-----------------------------|
Drug Drug Druggy Got a feelin sweet ho-oney
PM
e||------------------------|
D||------------------------|
G||------------------------| x2
B||--5--5---5-4-2--2-2-2-2-|
A||--5--5---5-4-2--2-2-2-2-|
E||--3--3---3-2-0--0-0-0-0-|
Show me your scars your so aware
e||------------|
D||------------|
G||------------|
B||--5--5--4-2-|
A||--5--5--4-2-|
E||--3--3--2-0-|

[REPEAT INTRO CHORDS]

[VERSE 2]

REPEAT BRIDGE

REPEAT CHORUS

[SOLO]
e||-------------------------------------7---------------------|
B||-7----7----7----------------10---------10p7-10p7---10p7---|




Ваше мнение



Капча