Manic Street Preachers
Damn Dog

Track 15 Generation Terrorists
Riff A
G-|-----------------|-----------------|
D-|-----------------|-----------------|
A-|-----12----------|-----------------|
E-|-12------12-12---|-12--0-/5-5-5-5--|
Riff B
G-|-----------------|-----------------|
D-|-----12----------|-----------------|
A-|-12------12-12---|-12--0-/5-5-5-5--|
E-|-----------------|-----------------|
Chorus
E E Esus4 E#4
D-|----------------|----------------|----------------|----------------|
A-|-^--------------|-^--------------|-^--------------|-^--------------|
E-|-0--0-0-0-0-0-0-|-4--4-4-4-4-4-4-|-5--5-5-5-5-5-5-|-6--6-6-6-6-6-6-|
E5(type2) N.C.
D-|----------------------|-------|
A-|-^--------------------|-^-----|
E-|-7---7--7--7--7--7--7-|-7----|

Outro

E5 N.C.
A-|-----------------|-^-----|
E-|-0-0-0-0-0-0-0-0-|-0-----|
transcribed by Kevin Brown And Chris Stevens




Ваше мнение



Капча