Australia
Intro: (Distortion, Bridge/treble pickup on a Les Paul)
e|-0--0-0-0----0--0-0-0----0--0-0-0-------------------------|
B|-0--0-0-0----0--0-0-0----0--0-0-0-------------------------|
G|-1--1-1-1----2--2-2-2----3--3-3-3----5--5--5-5-5--4--2----|
D|-2--2-2-2----2--2-2-2----2--2-2-2----5--5--5-5-5--4--2----| x2
A|-2--2-2-2----2--2-2-2----2--2-2-2----3--3--3-3-3--2--0----|
E|-0--0-0-0----0--0-0-0----0--0-0-0-------------------------|
e|---------------------------------|
B|---------------------------------|
G|-13-13--14-14-14-16-14-13-11--9--|
D|---------------------------------| x2
A|-11-11--12-12-12-14-12-11--9--7--|
E|---------------------------------|
e|-----0-----------0----------------0-----------0-----------| Instead of
B|-------0-----------0----------------0-----------0---------| This You can
G|--6------6-----6-----6-----6/8-8------8-----8-----8-----8-| Strum the chords:
D|--7--------7---7-------7---7/9-9--------9---9-------9---9-| A: 577655 and
A|--7----------7-7---------7-7/9-9----------9-9---------9-9-| B: 799877
E|--5------------5-----------5/7-7------------7-----------7-|
e|-------------------------|
B|-------------------------|
G|-2-2--2-2--2-2--2--2--2--|
D|-2-2--2-2--2-2--2--2--2--|
A|-0-0--0-0--0-0--0--0--0--|
E|-------------------------|
Verse 1: (Distortion, neck/rythm pickup on a Les Paul)
e|--4-4-4-4-4-4-4-4-4-4-4-4--3--3--3-3-3-3-|
B|--5-5-4-4-5-4-5-5-4-4-5-4--5--5--5-5-5-5-|
G|--6-6-4-4-6-4-6-6-4-4-6-4--5--5--5-5-5-5-|
D|--6-6-4-4-6-4-6-6-4-4-6-4--5--5--5-5-5-5-|
A|--4-4-4-4-4-4-4-4-4-4-4-4--3--3--3-3-3-3-|
E|-----------------------------------------|
|_______1st_time________| |____________2nd_time____________|
e|-3--3---------5-5------|-|-3-3--3-3-3-3-3-----------------|
B|-5--5---------7-7------|-|-5-5--5-5-5-5-5-----------------|
G|-5--5---------7-7------|-|-5-5--5-5-5-5-5-4-4-4-4-4-4-----|
D|-5--5---------7-7------|-|-5-5--5-5-5-5-5-4-4-4-4-4-4-----|
A|-3--3---------5-5------|-|-3-3--3-3-3-3-3-2-2-0-0-2-0-----|
E|-----------------------|-|--------------------------------|
e|---------------------------------------------------------|
B|---------------------------------------------------------|
G|-4-4-4-4-4-4--2-2--2-2--2-2--2-2--2--2--2----------------|
D|-4-4-4-4-4-4--2-2--2-2--2-2--2-2--2--2--2----------------|
A|-2-2-0-0-2-0--0-0--0-0--0-0--0-0--0--0--0----------------|
E|---------------------------------------------------------|
I don't know if i'm tired and i don't know if i'm ill
My cheeks are turning yellow
I think i'll take another pill
Verse 2 (As verse 1)
Praying for the wave to come now
It must be for the fifteenth time
I've been here for much too long
This is the past that's mine
Chorus 1: (Distortion, Bridge/treble pickup on a Les Paul)
e|---------------------------------|
B|---------------------------------|
G|-13-13--14-14-14-16-14-13-11--9--|
D|---------------------------------| x2
A|-11-11--12-12-12-14-12-11--9--7--|
E|---------------------------------|
e|-----0-----------0----------------0-----------0-----------| Instead of
B|-------0-----------0----------------0-----------0---------| This You can
G|--6------6-----6-----6-----6/8-8------8-----8-----8-----8-| Strum the chords:
D|--7--------7---7-------7---7/9-9--------9---9-------9---9-| A: 577655 and
A|--7----------7-7---------7-7/9-9----------9-9---------9-9-| B: 799877
E|--5------------5-----------5/7-7------------7-----------7-|
e|---------------------------------|
B|---------------------------------|
G|-13-13--14-14-14-16-14-13-11--9--|
D|---------------------------------| x2
A|-11-11--12-12-12-14-12-11--9--7--|
E|---------------------------------|
e|-----0-----------0----------------0-----------0-----------| Instead of
B|-------0-----------0----------------0-----------0---------| This You can
G|--6------6-----6-----6-----6/8-8------8-----8-----8-----8-| Strum the chords:
D|--7--------7---7-------7---7/9-9--------9---9-------9---9-| A: 577655 and
A|--7----------7-7---------7-7/9-9----------9-9---------9-9-| B: 799877
E|--5------------5-----------5/7-7------------7-----------7-|
e|-------------------------|
B|-------------------------|
G|-2-2--2-2--2-2--2--2--2--|
D|-2-2--2-2--2-2--2--2--2--|
A|-0-0--0-0--0-0--0--0--0--|
E|-------------------------|
I want to fly and run till it hurts
Sleep for a while and speak no words in Australia
I want to fly and run till it hurts
Sleep for a while and speak no words in Australia
In Australia
Solo: (Distortion, Phasor type effect, neck/rythm pickup on a Les Paul)
e|---------------------------------------------------------|
B|---------------------------------------------------13----|
G|--------------9/11----9-11bu13bd11-9-11-9-------12-------|
D|------------9------11---------------------12/14----------|
A|-----7-9/11----------------------------------------------|
E|-7/9-----------------------------------------------------|
e|------------------------------------|
B|-15bu17bd15-13----------------------|
G|---------------12-11h12p11----------|
D|---------------------------14-12-12-|
A|------------------------------------|
E|------------------------------------|
Verse 3 (as verse 1)
Praying for the wave to come now
It must be for the very last time
It's twelve o' clock to midnight
There must be someone to blame
Chorus 2 (as chorus 1)
I want to fly and run till it hurts
Sleep for a while and speak no words in Australia
I want to fly and run till it hurts
Sleep for a while and speak no words in Australia
In Australia
Middle 8??: (Distortion, Bridge/treble pickup on a Les Paul
'n' jump about while playing this bit)
e|-0--0-0-0----0--0-0-0----0--0-0-0-------------------------|
B|-0--0-0-0----0--0-0-0----0--0-0-0-------------------------|
G|-1--1-1-1----2--2-2-2----3--3-3-3----5--5--5-5-5--4--2----|
D|-2--2-2-2----2--2-2-2----2--2-2-2----5--5--5-5-5--4--2----|
A|-2--2-2-2----2--2-2-2----2--2-2-2----3--3--3-3-3--2--0----|
E|-0--0-0-0----0--0-0-0----0--0-0-0-------------------------|
e|-0-0--0-0-0-0-0--0-0--0-0-0-0-0--0-0--0-0-0-0-0-----------------------|
B|-0-0--0-0-0-0-0--0-0--0-0-0-0-0--0-0--0-0-0-0-0-----------------------|
G|-1-1--1-1-1-1-1--2-2--2-2-2-2-2--3-3--3-3-3-3-3--5--5--5-5-5--4--2----|
D|-2-2--2-2-2-2-2--2-2--2-2-2-2-2--2-2--2-2-2-2-2--5--5--5-5-5--4--2----|
A|-2-2--2-2-2-2-2--2-2--2-2-2-2-2--2-2--2-2-2-2-2--3--3--3-3-3--2--0----|
E|-0-0--0-0-0-0-0--0-0--0-0-0-0-0--0-0--0-0-0-0-0-----------------------|
e|------------------------------------------------------------------------------------|
B|-9-9--9-9-9-9-9--10-10--10-10-10-10-10--11-11--11-11-11-11-11-----------------------|
G|-9-9--9-9-9-9-9--9--9---9--9--9--9--9---9--9---9--9--9--9--9---5--5--5-5-5--4--2----|
D|-9-9--9-9-9-9-9--9--9---9--9--9--9--9---9--9---9--9--9--9--9---5--5--5-5-5--4--2----|
A|-7-7--7-7-7-7-7--7--7---7--7--7--7--7---7--7---7--7--7--7--7---3--3--3-3-3--2--0----|
E|------------------------------------------------------------------------------------|
e|-0--0-0-0----0--0-0-0----0--0-0-0-------------------------|
B|-0--0-0-0----0--0-0-0----0--0-0-0-------------------------|
G|-1--1-1-1----2--2-2-2----3--3-3-3----5--5--5-5-5--4--2----|
D|-2--2-2-2----2--2-2-2----2--2-2-2----5--5--5-5-5--4--2----|
A|-2--2-2-2----2--2-2-2----2--2-2-2----3--3--3-3-3--2--0----|
E|-0--0-0-0----0--0-0-0----0--0-0-0-------------------------|
Outro: (Distortion, Bridge/treble pickup on a Les Paul)
e|---------------------------------|
B|---------------------------------|
G|-13-13--14-14-14-16-14-13-11--9--|
D|---------------------------------| x2
A|-11-11--12-12-12-14-12-11--9--7--|
E|---------------------------------|
e|-----0-----------0----------------0-----------0-----------| Instead of
B|-------0-----------0----------------0-----------0---------| This You can
G|--6------6-----6-----6-----6/8-8------8-----8-----8-----8-| Strum the chords:
D|--7--------7---7-------7---7/9-9--------9---9-------9---9-| A: 577655 and
A|--7----------7-7---------7-7/9-9----------9-9---------9-9-| B: 799877
E|--5------------5-----------5/7-7------------7-----------7-|
e|-------------------------|
B|-------------------------|
G|-2-2--2-2--2-2--2--2--2--|
D|-2-2--2-2--2-2--2--2--2--|
A|-0-0--0-0--0-0--0--0--0--|
E|-------------------------|
e|---------------------------------|
B|---------------------------------|
G|-13-13--14-14-14-16-14-13-11--9--|
D|---------------------------------| x2
A|-11-11--12-12-12-14-12-11--9--7--|
E|---------------------------------|
e|-----0-----------0----------------0-----------0-----------| Instead of
B|-------0-----------0----------------0-----------0---------| This You can
G|--6------6-----6-----6-----6/8-8------8-----8-----8-----8-| Strum the chords:
D|--7--------7---7-------7---7/9-9--------9---9-------9---9-| A: 577655 and
A|--7----------7-7---------7-7/9-9----------9-9---------9-9-| B: 799877
E|--5------------5-----------5/7-7------------7-----------7-|
e|-5-5--5-5--5-5--5--5--5-5--5-5--5-5--5--5--5--0~~~~------|
B|-5-5--5-5--5-5--5--5--5-5--5-5--5-5--5--5--5--0~~~~------|
G|-6-6--6-6--6-6--6--6--5-5--5-5--5-5--5--5--5--1~~~~------|
D|-7-7--7-7--7-7--7--7--7-7--7-7--7-7--7--7--7--2~~~~------|
A|----------------------------------------------2~~~~------|
E|----------------------------------------------0~~~~------|
Australia
In Australia
I want to fly and run till it hurts
Sleep for a while and speak no words in Australia
In Australia
In Australia
In Australia
In Australia

Madbob [email protected]
http://manics.rawkstar.net




Ваше мнение



Капча