Band:Manic Street Preachers
Song:Another Invented Disease
Tabbed by:SLAUGHTER!!!!!!!! ([email protected])

Tuning:DGCFAD (two frets lower than standard)

Chords:(Chord names rfer to shapes rather than notes.
This is different because of the tuning. This saves
from too much confusion).
G5:355xxx
F5:x,8,10,10,x,x
C5:x355xx
F5(II):133


INTRO w/wah, but no pedalling


MAIN RIFF


---------------------------------------------
---------------------------------------------
---------------------------------------------
-----------5-2~~~2---------------------------
-------------------5-2-5-2-0-5--5-3-5--3-3-3-
-15-0^2^3----------------------3-1-3--1-1-1- x4 (except 15)


VERSE (w/main riff x4, heavily palm-muted throughout).


Drugs come out of boredom babe,
UN exports it everyday,
Their armies feed the ghetto lame,
Government approve it just the same.


BRIDGE


Gtr.1
--------------------------
--------------------------
-5---x-7--------99979---
-5---x-7--------99979---
-3---x-5--------77757---
-------------------------- x3
|Gtr.2 w/heavy palm-muting
--------------------------
--------------------------
--------------------------
-5555--777755557799999999-
-333355555533335577777777-
-----33------------------- x3
Daylight bores the sunshine out of me,
I need to feel alone amongst the weeds,
Daylight bores the sunshine out of me,




Gtr.1
----------------------------------
----------------------------------
-10--------------10---------------
-10--------------10---------------
--8---------------8---------------
----------------------------------
|Gtr.2 w/heavy palm-muting
----------------------------------
----------------------------------
----------------------------------
-10101010101010101010101010101010-
--8-8-8-8-8-8-8-8-8-8-8-8-8-8-8-8-
----------------------------------
I need to feel, (I need to feel)
I need to feel, (I need to feel)


CHORUS


G5 F5
We need and we will always need,
C5 F5(II) G5
Another invented disease,


We need and we are taught to need,
Another invented disease.


VERSE


Left alone in corporate slums,
Where germs are free not AMEX fun,
Healthy bodies in empty minds,
Only exists in advert time.


BRIDGE


Daylight bores the sunshine out of me,
I need to feel alone amongst the weeds,
Daylight bores the sunshine out of me,
I need to feel, (I need to feel)
I need to feel, (I need to feel)


REPEAT CHORUS


MIDDLE


RIFF B


Gtr.1 (clean) w/chorus + long delay)
-------------------------------
-----------3^0---1^0-----------
-----------------------2^0-----
-------0-------------------2^0-
-0^2^3---3-----3-----3---------
------------------------------- x2 (2nd time w/out last note,
2nd last note prolonged.)


RIFF C (distortion)


-----------------
-----------------
-----------------
-----------------
-------0-2^0-----
-0-2-3-------3^2- x2


REPEAT RIFF B


Sunk deep in my TV,
Maybe sucked the soul from within me.


REPEAT RIFF C


Gtr.1 plays riff B x2
Gtr.2
------------------------------------------------
-12-----12----12--------------------------------
-14(16)14(16)14(16)bend down(14)-12----12----12-
------------------------------------14----14----
------------------------------------------------
------------------------------------------------ x2 (w/out last 2 notes.
3rd last note w/~)


REPEAT RIFF C


Gtr.1 plays riff B
Gtr.2 w/wah
-------------------------------------------
----------------15^12-12-13^12-------------
----------12--x----------------14^12-------
-12^14^15----------------------------14^12-
-------------------------------------------
------------------------------------------- x2 (2nd time w/out last note)


Gtr.1 (now distorted) plays Riff C
Gtr.2
-17----17----17----17----15----------------15-
-20(22)20(22)20(22)20(22)----17^15^17^15^17----
-----------------------------------------------
-----------------------------------------------
-----------------------------------------------
----------------------------------------------- x2 (w/out 2nd + 3rd last notes)


Gtr.1
--------------------------
--------------------------
-5---x-7--------99979---
-5---x-7--------99979---
-3---x-5--------77757---
--------------------------
|Gtr.2
----------------------------------------------------------------------------------
--------------15(17)(15)12-------------------------------------------15(17)(15)12-
-------12~~xx---------------14-12----12^14^12----------12-------12~~--------------
-12^14----------------------------14----------14-12^14----12^14-------------------
----------------------------------------------------------------------------------
----------------------------------------------------------------------------------


Gtr.2 (still at same time as gtr.1 bridge riff)
----------------------------------------
----------------------------------------
-14-12----12^14^12----------12-12^14^12-
-------14----------14-12^14-------------
----------------------------------------
----------------------------------------


Gtr.1
----------------------------------
----------------------------------
-10--------------10---------------
-10--------------10---------------
--8---------------8---------------
----------------------------------
|Gtr.2 (tab not in line with gtr.1 part as before) (going into chorus)
---------------/15-15^17^1513^15^1312-13^1210^12^10---------------------------------------------------
-------------------------------------------------------12^13-12^13^1210-10^12^10------------------------
-12(14)(12)10~~-------------------------------------------------------------------12-12^9-12~~10~~9~~-
---------------------------------------------------------------------------------------------------------
---------------------------------------------------------------------------------------------------------
---------------------------------------------------------------------------------------------------------


REPEAT CHORUS


REPEAT CHORUS


What a song!
You can email me about anything you want.
[email protected]


Ваше мнение



Капча