Song : When I talk to you
Artist : Mandy Moore
Tabbed by : d'.'b™ Limuel
Email : [email protected]
NOTE:
The guitar tune was based like the on the song so this
should be accurate.Suggestions for improvements are welcomed.
INTRO:
A E D A
|------0----0-------0----0-------0----0-------0----0-0-
|------2------------0---------3--3------------2----2---
|---2--2------------1---------2--2---------2--2--2-2---
|---2--2--2------2--2--2------0--0--0------2--2--2-2---
|----------------2-------------------------------------
|------------------------------------------------------
VERSE:
Remember me, feels like forever since the days
when we were friends
A E D A
|------0----0-------0----0-------0----0-------0----0-0-
|------2------------0---------3--3------------2----2---
|---2--2------------1---------2--2---------2--2--2-2---
|---2--2--2------2--2--2------0--0--0------2--2--2-2---
|----------------2-------------------------------------
|------------------------------------------------------
Don't understand all these changes I'm still the
same no need to pretend
A E D A
|------0----0-------0----0-------0----0-------0--0-----
|------2------------0---------3--3------------2--2-----
|---2--2------------1---------2--2---------2--2--2-----
|---2--2--2------2--2--2------0--0--0------2--2--2-----
|----------------2-------------------------------------
|------------------------------------------------------
PRE-CHORUS:

Where'd it go, Do you know
|------------------------------------------------------
|-----7--7-------7-------10--10-------10---------------
|-----6----6---6---6-----9------9---9----9-------------
|---4-4------4-------4-7-7--------7--------7-----------
|------------------------------------------------------
|------------------------------------------------------
Maybe it just doesn't matter
|----------------------------
|---------------------------- c(~,~)o
|---7-7---6-6---1--1-1------- ^
|---7-7---7-7---2--2-2-------
|---5-5---7-7---2--2-2-------
|---------5-5----------------
CHORUS:
Cause when I try to talk to you
I feel like I'm not getting through to you
|---0-0----0--0--0--0---0-0----0--0--0--0-----
|---2-2----2--3--3--3---2-2----2--3--3--3-----
|---2-2----2--2--2--2---2-2----2--2--2--2-----
|---2-2----2--0--0--0---2-2----2--0--0--0-----
|---0-0----0------------0-0----0--------------
|--------2-------------------2----------------

Where did we go wrong It's hard to be strong
when I talk, when I talk to you
|-------0--0------0--0-----0--0x------0------0----0---
|-----3-3--3----3-3--3-----0--0x----3-3------2--------
|-----2----2----2----2--1--1--1x----2-----2--2--------
|-----------------------2--2--2x--0-------2--2--2-----
|-----------------------2-----------------------------
|---3---------2---------------------------------------
VERSE II:
There were times in the beginning, When you were
there when I needed you most
A E D A
|------0-------0-0--0--0------0--0----0----0--0-------
|------2---------0--0--0------3--3---------2--2-------
|---2--2--2------1--1--1------2--2---------2--2--2----
|---2--2--2------2--2--2------0--0--0------2--2--2----
|---0-----0------2--2--2-------------------0--0--0----
|-----------------------------------------------------
We'd sit and talk about the future and laugh about
us getting old
A E D A
|------0----0----0--0--0------0--0----0----0--0--0----
|------2---------0--0--0------3--3---------2--2--2----
|---2--2---------1--1--1------2--2---------2--2--2----
|---2--2--2------2--2--2------0--0--0------2--2--2----
|---0------------2--2--2-------------------0--0--0----
|-----------------------------------------------------
PRE-CHORUS:
Do you know how it feels
|----------------------------------------------------- < d'+'b > Radio Shocker
|-----7--7-------7-------10--10-------10--------------
|-----6----6---6---6-----9------9---9----9------------
|---4-4------4-------4-7-7--------7--------7----------
|-----------------------------------------------------
|-----------------------------------------------------
I hope that you know that it matters
|----------------------------
|---------------------------- (()))
|---7-7---6-6---1--1-1------- d'+'b Pido Dido!!!!!
|---7-7---7-7---2--2-2------- o/
|---5-5---7-7---2--2-2-------
|---------5-5----------------
CHORUS:
Cause when I try to talk to you
I feel like I'm not getting through to you
|---0-0----0--0--0--0---0-0----0--0--0--0-----
|---2-2----2--3--3--3---2-2----2--3--3--3-----
|---2-2----2--2--2--2---2-2----2--2--2--2-----
|---2-2----2--0--0--0---2-2----2--0--0--0-----
|---0-0----0------------0-0----0--------------
|--------2-------------------2----------------
Where did we go wrong It's hard to be strong
when I talk, when I talk to you
|-------0--0------0--0-----0--0x------0---------------
|-----3-3--3----3-3--3-----0--0x----3-3---------------
|-----2----2----2----2--1--1--1x----2-----------------
|-----------------------2--2--2x--0-------------------
|-----------------------2-----------------------------
|---3---------2---------------------------------------
BRIDGE:
I want you to know everything that I am
Don't want to know what life would be without you
Bm A E Bm A E D
|-----2-----0---0--0--0---|-----2-----0---0--0---
|-----3-----2---0--0--0---|-----3-----2---0--3---
|-----4-----2---1--1--1---|-----4-----2---1--2---
|-----4-----2---2--2--2---|-----4-----2---2--0---
|---2-----0-----2--2--2---|---2-----0-----2------
|-------------------------|----------------------
CHORUS:
Cause when I try to talk to you
I feel like I'm not getting through to you
|---0-0----0--0--0--0---0-0----0--0--0--0-----
|---2-2----2--3--3--3---2-2----2--3--3--3-----
|---2-2----2--2--2--2---2-2----2--2--2--2-----
|---2-2----2--0--0--0---2-2----2--0--0--0-----
|---0-0----0------------0-0----0--------------
|--------2-------------------2----------------
Where did we go wrong It's hard to be strong
when I talk, when I talk to you
|-------0--0------0--0-----0--0x------0-0------
|-----3-3--3----3-3--3-----0--0x----3-3-3------
|-----2----2----2----2--1--1--1x----2----------
|-----------------------2--2--2x--0------------
|-----------------------2----------------------
|---3---------2--------------------------------
When I talk to you 3x
|-----0----0----0-0-----0----0----0-0-----0----0----0-0-----
|-----2----2--3-3-3-----2----2--3-3-3-----2----2--3-3-3-----
|---2-2----2--2-2-2---2-2----2--2-2-2---2-2----2--2-2-2-----
|---2-2----2--0-0-0---2-2----2--0-0-0---2-2----2--0-0-0-----
|---0-----------------0-----------------0-------------------
|--------2-----------------2-----------------2--------------

then quickly pluck this
|---0-----0-----0-----------0-----0-----------0-----0-------
|-----3-----3-----3-----------3-----3-----------3-----3-----
|-------2-----2-----2---2-2-----2-----2---2-2-----2-----2---
|-------0-----0-----0-----0-----0-----0-----0-----0-----0---
|-----------------------------------------------------------
|-----------------------------------------------------------
repeat this till fade
|-------0-----0-----------0-----0-----------0-----0-------
|---------3-----3-----------3-----3-----------3-----3-----
|---2-2-----2-----2---2-2-----2-----2---2-2-----2-----2---
|-----0-----0-----0-----0-----0-----0-----0-----0-----0---
|---------------------------------------------------------
|---------------------------------------------------------
That's all, I can say its very accurate as you play and hear it.
If you find anything wrong here e-mail me at [email protected] d'.'b™




Ваше мнение



Капча