---------------------------------------------------------------------
IT'S GONNA BE LOVE - Mandy Moore
---------------------------------------------------------------------
By:Chris Schneider
intro: head: in the key of C
e|----1------1----------------------------------------------|
B|----1------1----------------------------------------------|
G|----0------0--------------4--4-5----------4--4-5----------|
D|----1------3---------------------5---------------5--------|
A|----x------x--------------------------3-------------------|
E|----x------x----------------------------------------------|
verse:
e|---1--1--0--0-----1--1--0--0-----1--1--1--1-----1--1--1--1-----|
B|---1--1--1--1-----1--1--1--1-----1--1--1--1-----1--1--1--1-----|
G|---0--0--0--0-----0--0--0--0-----0--0--0--0-----0--0--0--0-----|
D|---x--3--2--0-----x--3--2--0-----0--2--3--3-----1--1--3--3-----|
A|---------------------------------------------------------------|
E|---------------------------------------------------------------|
chorus: Am F C G repeat
e|--------0---1---0---3------0---1---0---3------|
B|--------1---1---1---0------1---1---1---0------|
G|--------2---2---0---0------2---2---0---0------|
D|--------2---3---2---0------2---3---2---0------|
A|--------0---3---3---2------0---3---3---2------|
E|--------x---1---x---3------x---1---x---3------|
1st time through the chorus play this at the end:
e|---1----0----1----1----1----1-------|
B|---1----1----1----1----1----1-------|
G|---2----0----3----3----2----2-------|
D|---3----2----3----3----3----3-------|
A|---3----2----1----1----3----3-------|
E|---1----0----x----x----1----1-------|
2nd time, play this
e|---1----0----0----3----1----1----1----1-----|
B|---1----1----1----0----1----1----1----1-----|
G|---2----0----0----0----3----3----2----2-----|
D|---3----2----2----0----3----3----3----3-----|
A|---3----2----3----2----1----1----3----3-----|
E|---1----0----x----3----x----x----1----1-----|
the bridge is just C-C-Am-Am-G-G-F-F
=====================================================================




Ваше мнение



Капча