MANDY MOORE 'I WANNA BE WITH YOU'
********************************

From the album of the same name
Tabbed by Anthony R.G
Changes/Queries: [email protected]

***Visit www.mmguitar.ionichost.com for more Mandy Moore tabulature***

Tune guitar down 1/2 step (Eb tuning)

I only started to enjoy this song once I heard the live version. It rocks.
The acoustic guitar is tabbed from that live version, but is almost identical
to the recorded version.

INTRO
-----

Eb Ab

1|-----7------------7--------------7--------------7----------
2|-----7------------7--------------7--------------7----------
3|---------8------------8----9---9-----8----9---9-----8----9-
4|---9---9--------9---9--------7-----7--------7-----7--------
5|-7------------7--------------0--------------0--------------
6|-0------------0--------------------------------------------

VERSE
-----

I try but I can't seem....etc

Eb Ab Eb

1|-----7------------7--------------7--------------7----------
2|-----7------------7--------------7--------------7----------
3|---------8------------8----9---9-----8----9---------8----9-
4|---9---9--------9---9--------7-----7----------9---9--------
5|-7------------7--------------0--------------7--------------
6|-0------------0-----------------------------0--------------

You know what I cam here for...

Db Bbm Db Bbmaj (with fill see below)

1|-----5----------2----2------------5-------2-----------------
2|-----5----------3--------3--------5----5--4---4-4---4-4-----
3|-7--------6--4-------------4--7--------7--4---4-4---4-4-----
4|---7----------------------------7------7--4---4-4---4-4-----
5|-5--------4--2----------------5-----------2---2-2---2-2-----
6|------------------------------------------------------------

***Fill***

1|---------6-
2|-6-8-6-8---
3|-----------
4|-----------
5|-----------
6|-----------

CHORUS
------

Eb Ab
I wanna be with you

Fm
If only for a night

Db
To be the one who in your arms who

Bb
Holds you tight


Now return to:

Eb /Ab

BRIDGE
------

Woah, baby, I can't fight this feelin' anymore

Bb F# G#

1|----9-8-------9-8---------------9-8-------------
2|--------9---------9-----------------9-----------
3|------------------------------------------------
4|------------------------------------------------
5|------------------------------------------------
6|------------------------------------------------


Eb B
So call my name, take my hand

Db
And make my wish, baby your command

Return to chorus

***Fill over last section. Strings and guitars play this***

Eb Ab

1|-3---------------3----------------4/6---
2|------4--3----4------4--3------4--------
3|----------------------------------------
4|----------------------------------------
5|----------------------------------------
6|----------------------------------------

***Visit www.mmguitar.ionichost.com for more Mandy Moore tabulature***




Ваше мнение



Капча