MANDY MOORE 'CRUSH'
*******************

From the album 'Mandy Moore'
Tabbed by Anthony R.G
Changes/Queries: [email protected]

***Visit www.mmguitar.ionichost.com for more Mandy Moore tabulature***

This is a pretty easy and straight forward song. It has a cool little guitar break which
really captures the song, but its easy to play

INTRO
-----

G C

1|--------------10-------
2|-------------------8---
3|-----------------9-----
4|-----------------------
5|-----------------------
6|-----------------------

Overdub this on all the verse

1|----------------------------------
2|-8--8--8--8-8-8-8--8--8--8-8-7/8--
3|----------------------------------
4|-5--5--5--5-5-5-5--5--5--5-5-5----
5|----------------------------------
6|----------------------------------

VERSE
-----

G Em
You know everything that I'm afraid of, you do everything i wish i did

C
Everybody wants you, everybody loves you

G Em
I know i should tell you how i feel, I wish everyone would disappear

D
Every time time you call me, I'm too scared to be me

C
And I'm too shy to say


In case your wondering, there's a bit of reverse guitar used, it's just playing the same
chords, obviously. Add a heavy tremolo effect in some places and off you go.

CHORUS
------

G Em
Ooh, I got a crush on you, I hope you feel the way that i do

D C
I get a rush when I'm with you, ooh I've got a crush on you

A crush on you

BRIDGE
------

Em
Ooh, I wish i could tell somebody

D
But there's no one to talk to, nobody knows

C
I've got a crush on you

GUITAR BREAK
------------

1|-10------------------------------10-------------------------
2|----12---------10---12-10-----------12---------10---12------
3|-------12---12-------------12----------12---12---------12---
4|------------------------------------------------------------
5|------------------------------------------------------------
6|------------------------------------------------------------

1|------------------------------------------------------10----
2|----10-10---10------10/12-10----10-10---10------10/12-------
3|-12--------------12--------------------------12-------------
4|------------------------------------------------------------
5|------------------------------------------------------------
6|------------------------------------------------------------

1|-10-10-------------------------10---------------------------
2|-------9h11-12---------10---------12------------10----------
3|-----------------11/12----12---------12---11/12-----12------
4|------------------------------------------------------------
5|------------------------------------------------------------
6|------------------------------------------------------------

Have fun with that one.

***Visit www.mmguitar.ionichost.com for more Mandy Moore tabulature***




Ваше мнение



Капча