tab: hiram alonso
Intro: )
(G) (Bm) (C) (D) (Final)
E----3------5---2---5p2--0----3---2-----3---|--3-2-2-0-0---------|
B----3-3----3---3--3-----1---1----3-3p5--5--|--3-3-3-1-1--3-31~-|
G----0--0-0-----2-2------0--0-----2---------|-------------4-42~-|
D---------------------------------0---------|--------------------|
A---------------2--------3------------------|--------------------|
E----3---3----------------------------------|--------------------|
Harmonica:
e-----12~~~-10-12-10-12-10-10-7~--7-8-7-8-7-7-3~-3p5~--|
B---8~-------------------------------------------------|
G------------------------------------------------------|
D------------------------------------------------------|
A------------------------------------------------------|
E------------------------------------------------------|
G Bm C D G Bm C D
Como quisiera poder vivir sin aire
riff2
e--3/5--5-5--3-2--2-3-2-0-------2---3--2-2-3---------|
B--3/5--5-5--3-3--3-3-3-1--1/3--3---3--3-3-3---------|
G--------------------------2/4-----------------------|
D----------------------------------------------------|
A----------------------------------------------------|
E----------------------------------------------------|
G Bm C D G Bm C D
Como quisiera poder vivir sin agua
riff3
e-----3------3-5-3------------------------|
B-3/5----3-5-3-5-3--3-3/5--5-5-5-3-3-3-1--|
G--------4-5--------4-4/5--5-5-5-3-4-4-2--|
D-----------------------------------------|
A-----------------------------------------|
E-----------------------------------------|
G Bm C D G Bm C D
Me encantaria quererte un poco menos (riff2)
G Bm C D G Bm C D
Como quisiera poder vivir sin ti (riff 3)
C D Em C
Pero no puedo, siento que muero
G D
Me estoy ahogando sin tu amor
riff4
e--2-3-5-3-2---3-2--------------|
B------------5-----5-3----------|
G----------------------5-4------|
D--------------------------5h0--|
A-------------------------------|
E-------------------------------|
Em C G D
Como quisiera poder vivir sin aire
Em C D
Como quisiera calmar mi afliccion
Em C G D
Como quisiera poder vivir sin agua
Em C D
Me encantaria robar tu corazon
INTRO
Como pudiera un pez nadar sin agua
riff 4
e-----------2-3-0-----------------|
B------3-5--3-3-1--5-5-5-3-3------|
G--4-5-4-5---------5-5-5-4-4--4-5-|
D--5-5------------------------5-5-|
A---------------------------------|
E---------------------------------|
Como pudiera un ave volar sin alas
riff 5
e--------7---5---3--2-3-0-----2-3-2-2-3-|
B----5p7---5---3----3-3-1-1p3-3-3-3-3-3-|
G-------------------------2p4-----------|
D---------------------------------------|
A---------------------------------------|
E---------------------------------------|
Como pudiera la flor crecer sin tierra
riff 6
e-----------2-3-0-------------2-3-|
B------3-5--3-3-1--5-5-5-3-3--3-3-|
G--4-5-4-5---------5-5-5-4-4------|
D--5-5----------------------------|
A---------------------------------|
E---------------------------------|
Como quisera poder vivir sin ti (riff 5)
riff 5
e--------7---5---3--2-3-2-0-0----------------|
B----5p7---5---3----3-3-3-1-1-3-3-0-0-13----|
G-----------------------------4-4-0-0-24----|
D--------------------------------------------|
A--------------------------------------------|
E--------------------------------------------|
Pero no puedo, siento que muero
Me estoy ahogando sin tu amor (riff 4)
Como quisiera poder vivir sin aire
Como quisera calmar mi afliccion
Como quisiera poder vivir sin agua
Me encantaria robar tu corazon
Como quisera lanzarte al olvido
Como quiera guardarte en un cajon
Como quisiera borrarte de un soplido
Me encantaria matar esta cancion
final:
e----3-2-0-----2-3-0--0---------|
B----3-3-1-3-3-3-3-1--1-3-1-4---|
G----------4-4----------4-2-5---|
D-------------------------------|
A-------------------------------|
E-------------------------------|.....
e maIL: [email protected]




Ваше мнение



Капча