Mana

En el muelle de San Blas (unplugged) (TAB)
Tabbed by maria de los angeles cambra : [email protected]

Intro
Em7 A7 D/F# G
e|---------0---------------0--------------------------------------2----|
B|-----3-----3---3-----2-----2---2----------3----------------0------3--|
G|---0---0-----0-----0---0-----0--------2-----2---2----0---0-----------|
D|-2----------------------------------0---0-----0--------0-----0-------|
A|-----------------0---------------------------------------------------|
E|----------------------------------2----------------3-----------------|
Esto lo hace tres veces mas y al final toca un La y empieza el arpegio siguiente
Arpegio 1
Em A D9 G
e|---------7---------------5--------------5----------------3---2---|
b|-----8-----9---9-----5-----5---5-----5-----5---5-----3-----3---3-|
g|---9---9-----8-----6---6-----6-----7---7-----7-----4---4---------|
d|-----------------------------------------------------------------|
a|-7-------------------------------5-------------------------------|
E|-----------------5-------------------------------3---------------|
Arpegio 1 (x2)
Em A D9 G
Ela dеsрidiу a su amor, el раrтiу en un barco en el muelle de san Blas
Em A D9 G
El juro que vоlvеrна y empapada en llanto ella juro que еsреrаrна
Em A D9 G
miles de lunas pasaron, y siempre ella estaba en el muelle esperando
Em A D9 G
muchas tardes se anidaron, se anidaron en su pelo y en sus labios.
Em A D9 G
uhhhhhhhh
(empieza a arpegiar como en el intro)
Em7 A7 D/F# G
llevaba el mismo vestido y por si el volviera no se fuera a equivocar
Em7 A7 D/F# G
los cangrejos le mоrdнаn, su ropaje, su tristeza y su ilusiуn
Em7 A7 D/F# G
y del tiempo se еsсurriу , y sus ojos se le llenaron de amaneceres
Em7 A7 D/F# G
y del mar se enamoro, y su cuerpo se еnrаizу en el muelle
Coro
Arpegio 2
D A
Sola, sola en el olvido
D A
Sola, sola con su еsрнriтu
D A
Sola, sola con su amor el mar
Arpegio 3
G A D
Sola, en el muelle de San Blas
Arpegio 2
D A D A
e|----------2----------------0----------------2----------------0-------|
B|------3-----3---3------2-----2---2------3-----3---3------2-----2---2-|
G|----2---2-----2------2---2-----2------2---2-----2------2---2-----2---|
D|-0---------------------------------0---------------------------------|
A|-------------------0---------------------------------0---------------|
E|---------------------------------------------------------------------|
Arpegio 3
G A D
E|----------3---------------0---------2-------|
B|------0-----0---0-----2-----2---2---3-------|
G|----0---0-----0-----2---2-----2-----2-------|
D|------------------------------------0-------|
A|------------------0-----------------x-------|
E|--3---------------------------------x-------|
Arpegio 1 (x2)
Em A D9 G
Su cabello se blanqueo pero ningъn barco a su amor le dеvоlvна
Em A D9 G
Y en el pueblo le dеснаn , le dеснаn la loca del muelle de San Blas
(Empieza arpegio del intro)
Em7 A7 D/F# G
Y una tarde de abril la intentaron trasladar al manicomio
Em7 A7 D/F# G
Nadie la pudo atrapar y del mar nunca jаmбs la separaron
Coro
Rasgueo
D A G A D
Arpegio 4
D A
e|----------2-----------0-|
B|------3-----------2-----|
G|----2---2-------2---2---|
D|-0----------------------|
A|--------------0---------|
E|------------------------|
Utilizar Arpegio 4
D A
Sola, sola en el olvido
D A
Sola, sola con su еsрнriтu
D A
Sola, sola con su amor el mar
Arpegio 3
G A D
Sola, en el muelle de San Blas
Coro
Rasgueo
D9 G G* D9 G G A
e|-5---3---3---5---3---3---0--|
B|-5---3---3---5---3---3---2--|
G|-7---4---0---7---4---0---2--|
D|-7---5---0---7---5---0---2--|
A|-5---5---2---5---5---2---0--|
E|-5---3---3---5---3---3---X--|
D G G*
Se quedo, se quedo ,sola , sola
D G G*
Se quedo, se quedo con el sol y con el mar
Empieza a hacer el riff
D
Se quedo анн , se quedo hasta el fin
G G* D
Se quedo анн, se quedo en el muelle de San Blas
G G* D G G*
Oh no no no , sola sola se quedo
Lo sigue haciendo dos veces mбs y termina con los acordes
riff
e|-9-9-9-9-10-10-10-10-12-12-9-9-9-9-10-10-10-10-12-12---------------------|
B|-9-9-9-9--9--9--9--9--9--9-9-9-9-9--9--9--9--9--9--9--8-8-8-8-7-7-7-7----|
G|----------------------------------------------------------------------9--|
D|-------------------------------------------------------------------------|
A|-------------------------------------------------------------------------|
E|-------------------------------------------------------------------------|

G* D A D




Ваше мнение



Капча