MANA
ROBAME EL ALMA (SUЕСОS LIQUIDOS)
Por Carlos Carvallo (Paraguay)
e-mail: [email protected]
AFINACION NORMAL
INTRO
Fig. 1 Fig.2
e---------------|---------------------------------------
b------10-------|----------9----------------10----------
g---9----9--9-9-|------9----9--9-9--------9---9--9-9----
d-7--7----7-----|----7--7----7------------7----7--------
a---------------|----------------------9----------------
E---------------|---------------------------------------
e---------------------|
b---10----------------|
g--9--9-9-----9-------|
d-0----------9--9-9---|
a----------7----------|
E---------------------|
NOTAS PARA EL VERSO
A5 5-7-7-x-x-x
C5# 9-11-11-x-x-x
D5 10-12-12-x-x-x
F5# 2-4-4-x-x-x
G5# 4-6-6-x-x-x
A5 C5# A5
Robame el alma y bebela
C5# A5
Embriagate hasta caer
C5# D5 A5 C5# F5# G5#
Y amame hasta еnlоquесееееейееейееr
A5 C5# A5
Moja mis suесоs con tu luz
C5# A5
Moja mis cabellos y mi piel
C5# D5 A5 C5# F5# C5# D5
Hay algo en ti que me pone вiееееейееейееn
NOTAS PARA EL CORO ()= apretar solo algunas veces.
E5 x-7-9-9-x-x
F5# x-9-11-11-x-x
D5 10-12-12-x-x-x
D? 10-12-14-x-x-x o A? x-12-14-14-x-x
les puse D? o A? para escuchar cual les suena mejor.
E5 F5# E5
Robame el alma
D5 A5 C5# D5
Elevame con tu espiritu
E5 F5# E5
Robame el alma
D5 A5 C5# D5
Inyectame fuerza con tu luz
E5 F5# E5 D5 D?oA? G5#/A5
Robame el аlmааааабаааа
VERSO
Robame el alma y siembrala
Entre tu pecho y corazon
Entre las nubes de tu pasion
Desnuda mi alma y curala
Llena mis ojos con tu luz
Llena mi amor con tu espiritu

CORO...
SOLO
e------------------------------------------------------------------------
b-10-10-10-10-10-10-9-9-9-9-9-9-7-7-7-7-10-10-10-10-10-10-9-9-9-9-9-9-10-
g------------------------------------------------------------------------
d------------------------------------------------------------------------
a------------------------------------------------------------------------
E------------------------------------------------------------------------
e----------------------------------------------------------------------------
b-12-12-12-12-12-12-14-14-14-14-14-14-14-14-14-14-12-12-12-12-12-17-17-17-15-
g----------------------------------------------------------------------------
d----------------------------------------------------------------------------
a----------------------------------------------------------------------------
E----------------------------------------------------------------------------
e----------------------------19-19-19-19-19-19--17-17-17-17-17-17-17-17-16---
b-15-15-15-15-15-15-14-14-14-14-14-14-17-17-17-17-17-17-17-------------------
g----------------------------------------------------------------------------
d----------------------------------------------------------------------------
a----------------------------------------------------------------------------
E----------------------------------------------------------------------------
e-16-19-19-19-19-19-19-19-17-17-17-17-17-17-17-16/14-14-14-14-14-15-15-15-15-
b----------------------------------------------------------------------------
g----------------------------------------------------------------------------
d----------------------------------------------------------------------------
a----------------------------------------------------------------------------
E----------------------------------------------------------------------------
e-15-15-15-15-14-14-14-15-15-15-15-15-14-14-14-
b----------------------------------------------
g----------------------------------------------
d----------------------------------------------
a----------------------------------------------
E----------------------------------------------
e-14-14-14-14-15-15-15-14-14-14-14-15-15-15-15-|
b----------------------------------------------|
g----------------------------------------------|
d----------------------------------------------|
a----------------------------------------------|
E----------------------------------------------|
2X
e-----------------------------------------------
b----------------7-7-7--------------------------
g------------5-5-------------------5-5--7-7-7---
d---7-7--5-5--------------7-7--5-5--------------
a-5---------------------5-----------------------
E-----------------------------------------------
e-----------------------------------------------|
b----------------7-7-7--------------------------|
g------------5-5-------------------7-5-0----7---|
d---7-7--5-5--------------7-7--5-5-------5-7----|
a-5---------------------5-----------------------|
E-----------------------------------------------|
CORO
VARIACION (CON NOTAS DEL CORO)
A5 C5# D5 A5 C5# D5 E5 F5#
Desnuuuudameeee el alma y cuuuuurame el аlmааааабаа
E5 D5 A5 G#5/A5
Robame todo el alma
A5 C5# D5 A5 C5# D5 E5 F5#
Desnuuuudameeee el alma y cuuuuurame el аlmааааабаа
E5 D5 A5 C#5/D5
Robame todo el alma
A5 con Fig.1
ye ye ye ye
Eso es todo.!.




Ваше мнение



Капча