Маnа
Falta Amor (1993)
This is my version of this great song, one of the best of this group.
If you have any questions or comments, please email me. Good Luck.
Intro:
G D Em C
1. --3----------2----------0----------0----------|
2. --0-0-3------3-0-3------0-0-3------1-0-3------|
3. --0-----4-5--2-----4-5--0-----4-5--0-----4-5--|
4. --0----------0----------2----------2----------|
5. --2----------0----------2----------3----------|
6. --3---------------------0----------0----------|
G Bm C D Em
1. --3----------2--------0--------2----------0---3--|
2. --0-0-3------3-0-3----1-0-3----3-0-3------0-0----|
3. --0-----4-5--4-----4--0-----4--2-----4-5--0------|
4. --0----------4--------2--------0----------2------|
5. --2----------2--------3--------0----------2------|
6. --3-------------------0-------------------0------|
Verso:
G C D C
Rayando el sol, rayando por ti,
1. -----------------3—-0--------------------2-2----0-0---0----|
2. -----------------0--1--------------------3------1-------1--|
3. -----------------0--0--------------------2---2--0---0------|
4. -----------------0--2--------------------0------2----------|
5. -----------------2--3--------------------0------3----------|
6. -----------------3--0--------------------------------------|
G C D C
esta pena me duele, me quema sin tu amor,
1. ------3---3--------------0---0-----------2---------3--|
2. ------0-----0------------1-----1---------3-5-3---5----|
3. ------0-0----------------0-0-------------2-----4------|
4. ------0------------------2---------------0------------|
5. ------2------------------3---------------0------------|
6. ------3------------------0----------------------------|
Bm C D C
no me has llamado, estoy desesperado,
1. -------2-----3--------0-----0------2-0--------3-5--|
2. -------3---3----------1---1--------3---3--5-3------|
3. -------4-4------------0-0----------2---------------|
4. -------4--------------2------------0---------------|
5. -------2--------------3------------0---------------|
6. ----------------------0----------------------------|
Bm C D
son muchas lunas las que te he llorado
1. -----2-2----------0-0---------------2-----------|
2. -----3-----3------1-----1-----------3-5-3-5--3--|
3. -----3---3--------0---0-------------2-----------|
4. -----4------------2-----------------0-----------|
5. -----2------------3-----------------0-----------|
6. ------------------0-----------------------------|
CORO:
G D Em C
Rayando el sol, ohe oh, desesperacion,
1. ------------3//-----2//-------------------------|
2. ------------3//-----3//-------------3/53-------|
3. ------------4//-----2//-------------------4-4b--|
4. ------------5//-----0//-------------------------|
5. ------------5//-----0//-------------------------|
6. ------------3//---------------------------------|
G Bm C D
es mas facil llegar al sol que ha tu corazon,
1. --------3---------------2-----------------0---------|
2. --------3---------------3-----------------1---------|
3. --------4---------------4-----------------0---------|
4. --------5---------------4-----------------2---------|
5. --------5---------------2-----------------3---------|
6. --------3---------------------------------0---------|
G D Em C
me muero por ti, ohe oh, viviendo sin ti,
1. -------------3//-----2//--------------0//--------------|
2. -------------3//-----3//--------------0//--3/53-------|
3. -------------4//-----2//--------------0//--------4-4b--|
4. -------------5//-----0//--------------2//--------------|
5. -------------5//-----0//--------------2//--------------|
6. -------------3//----------------------0//--------------|
G Bm C D
y no aguanto, me duele tanto estar asi...
1. --------3----------------2-----------0-0----2--|
2. --------3----------------3-----------1------3--|
3. --------4----------------4-----------0---0--2--|
4. --------5----------------4-----------2------0--|
5. --------5----------------2-----------3------0--|
6. --------3----------------------------0---------|

Em
...rayando el sol.
1. -------------------10/12--12-10-8-7--------|
2. ------------------------------------10-8~--|
3. -------------------------------------------|
4. -------------------------------------------|
5. -------------------------------------------|
6. -------------------------------------------|

G C D C
A tu casa yo fui, y no te encontre,
1. --------------3--------0---0-------------2---3---3-5------|
2. --------------0-0-3----1-----1-----------3-3---5-----3-5--|
3. --------------0-----4--0-0---------------2----------------|
4. --------------0--------2-----------------0----------------|
5. --------------2--------3-----------------0----------------|
6. --------------3--------0----------------------------------|
G C D C
en el parque, en la plaza, en el cine yo te busque,
1. -------3----------------------0-----------------2-----3----------|
2. -------0----------------------1-----------------3-5-3---5-5-3-5--|
3. -------0----------------------0-----------------2----------------|
4. -------0----------------------2-----------------0----------------|
5. -2-----2----------------------3-----------------0----------------|
6. --3/5--3----------------------0----------------------------------|
Bm C D C
te tengo atrapada entre mi piel y mi alma,
1. ----2-----3---0----------------------2-------2-5-0--|
2. ----3-0-3-----1---0-5----------------3-3-5-3--------|
3. ----4---------0-0--------------------2--------------|
4. ----4---------2----------------------0--------------|
5. ----2---------3----------------------0--------------|
6. --------------0-------------------------------------|
Bm C D
mas ya no puedo tanto y quiero estar junto a ti,
1. ------------2-------------0-------------------2------------|
2. ------------3-------------1-------------------3-3-5-3-5-7--|
3. ------------4-------------0-------------------2------------|
4. ------------4-------------2-------------------0------------|
5. ------------2-------------3-------------------0------------|
6. --------------------------0--------------------------------|
- CORO
G D Em C
Rayando el sol, ohe oh, desesperacion,
1. ------------3//-----2//-------------------------|
2. ------------3//-----3//-------------3/53-------|
3. ------------4//-----2//-------------------4-4b--|
4. ------------5//-----0//-------------------------|
5. ------------5//-----0//-------------------------|
6. ------------3//---------------------------------|
G Bm C D
es mas facil llegar al sol que ha tu corazon,
1. --------3---------------2-----------------0---------|
2. --------3---------------3-----------------1---------|
3. --------4---------------4-----------------0---------|
4. --------5---------------4-----------------2---------|
5. --------5---------------2-----------------3---------|
6. --------3---------------------------------0---------|
G D Em C
Uhhhhhh, me muero por ti, ohe oh, viviendo sin ti,
1. ----------------------3//-----2//--------------0//--------------|
2. ----------------------3//-----3//--------------0//--3/53-------|
3. ----------------------4//-----2//--------------0//--------4-4b--|
4. ----------------------5//-----0//--------------2//--------------|
5. ----------------------5//-----0//--------------2//--------------|
6. ----------------------3//----------------------0//--------------|
G Bm C D
y no aguanto, me duele tanto estar asi...
1. --------3----------------2-----------0-0----2--|
2. --------3----------------3-----------1------3--|
3. --------4----------------4-----------0---0--2--|
4. --------5----------------4-----------2------0--|
5. --------5----------------2-----------3------0--|
6. --------3----------------------------0---------|

Em
...rayando el sol.
SOLO:
*c/distorcion:
1. –12b—12p10-8-10/12--12-10------------|
2. --------------------------105--7-7b-|
3. -------------------------------------|
4. -------------------------------------|
5. -------------------------------------|
6. -------------------------------------|
1. -------------------------------3-------3-------5-----------3----|
2. -7-7b-5p3-5/7-5-3----3-----------3-3/5---3-5/7---7-10--------5--|
3. -------------------4---4-4/5-5------------------------9---------|
4. --------------------------------------------------------10------|
5. ----------------------------------------------------------------|
6. ----------------------------------------------------------------|
1. -8-3-----2--------------12-12/14-12--|
2. -----5-----3—-3-5-7--10--------------|
3. -------5-----------------------------|
4. -------------------------------------|
5. -------------------------------------|
6. -------------------------------------|
*baja/distorcion:
1. -----10-5h7---12-15---------------12-15-12-10/12--8-----10----8-10-|
2. –5h7----------------17--17-17p15--------------------8------10------|
3. ------------------------------------------------------9------------|
4. -------------------------------------------------------------------|
5. -------------------------------------------------------------------|
6. -------------------------------------------------------------------|
G D Em C
Rayando el sol, ohe oh, desesperacion,
1. ------------3//-----2//-------------------------|
2. ------------3//-----3//-------------3/53-------|
3. ------------4//-----2//-------------------4-4b--|
4. ------------5//-----0//-------------------------|
5. ------------5//-----0//-------------------------|
6. ------------3//---------------------------------|
G Bm C D
es mas facil llegar al sol que ha tu corazon,
1. --------3---------------2-----------------0---------|
2. --------3---------------3-----------------1---------|
3. --------4---------------4-----------------0---------|
4. --------5---------------4-----------------2---------|
5. --------5---------------2-----------------3---------|
6. --------3---------------------------------0---------|
G D Em C
rayando por ti, (rayando, rayando) uhhhhhhhh
1. -------------3//-----2//-0//------0//-------|
2. -------------3//-----3//-0//------1//-------|
3. -------------4//-----2//-0//------0//-------|
4. -------------5//-----0//-2//------2//-------|
5. -------------5//-----0//-2//------3//-------|
6. -------------3//---------0//------0//-------|
G Bm C D G
Rayando rayando el sol (rayando) ay ay ay ay ay ay, Rayando el sol!
1. --------3-3--------------2-2------0-0----------2-2-----------------|
2. --------3-----3----------3-----3--1-----1------3-----3-------------|
3. --------4---4------------4---4----0---0--------2---2------FADE-----|
4. --------5----------------4--------2------------0-----------OUT-----|
5. --------5----------------2--------3------------0-------------------|
6. --------3-------------------------0--------------------------------|




Ваше мнение



Капча