Manб No ha parado de llover (unplugged) (TAB)He incluido tablaturas y acordes.
Tabbed by maria de los angeles cambra : [email protected]

-INTRO:
e||------------------------------|| ||--------------||
B||--3--3--2--2--0--0--2--2------|| ||--3--3--3--2--||
G||*-------------------------2--*|| x8 ||--------------||
D||*----------------------------*|| ||--------------||
A||------------------------------|| ||--------------||
E||------------------------------|| ||--------------||
-PUNTEO 1:
e||-----------------------------------0---2---0----
B||----3---3---3---3---3------3---3----------------
G||*-2---2---2---2---2------2---2---2---2---2------
D||*-----------------------------------------------
A||------------------------------------------------
E||------------------------------------------------

e----2---2---3---3---3------2---2---0---5--------||
B--3---3---3---3---3------3---3---3---3----------||
G-----------------------------------------------*|| x2
D-----------------------------------------------*||
A------------------------------------------------||
E------------------------------------------------||
-VERSOS 1:
Desde que te perdi, la luz se ha puesto muy
Re La Sim Sol
e||---------2-------------------------------------------------
B||------------3--------2-------------3-----------------------
G||------2------------2---2---------4---4-------------4-------
D||---0-------------2-------2-----4-------4---------5---5-----
A||---------------0-----------0-2-----------2-0---5-------5---
E||---------------------------------------------3-----------3-
mojada, mirada triste esta nublada,
Re La Sim Sol
e-------2-------------------------------------------------
B-----3---3-----------2------------3----------------------
G---2-------2-------2---2-------------4-----------4-------
D-0-----------0---2-------2------4--------------5---5-----
A---------------0-----------0-2---------2-0---5-------5---
E-------------------------------------------3-----------3-
y en mis ojos no ha parado de llover.
Re La Sim Sol
e-------2---------------------------------------------------||
B-----3---3-----------2-------------3-----------------------||
G---2-------2-------2---2---------4---4-------------4-------||
D-0-----------0---2-------2-----4-------4---------5---5-----||
A---------------0-----------0-2-----------2-0---5-------5---||
E---------------------------------------------3-----------3-||
(Este es el patrуn que siguen las guitarras, solo que
improvisan de vez en cuando, asн que no sonarб exacto,
la cuestiуn es jugar con las notas de los acordes, asн
que ya sabйis...)
-PUNTEO 2:
e||-----------------------------------0---2---0----
B||----3---3---3---3---3------3---3----------------
G||*-2---2---2---2---2------2---2---2---2---2------
D||*-----------------------------------------------
A||------------------------------------------------
E||------------------------------------------------
-VERSOS 2:(Los + serбn para marcar los acentos. Y las notas que estбn
entre los ( ) las toca la 2Є guitarra doblando a la 1Є)
Solo ya sin ti, me tienes como un perro
Re La Sim Sol
e||--2--2--2--2-x-------------------2--2-x-3--3-3-3-3-x---
B||--3--3--3--3-x-2-(3-----2-3----)-3--3-x-3--3-3-3-3-x---
G||--2--2--2--2-x-2-(--2-4-----4-x)-4--4-x-4--4-4-4-4-x---
D||--0--0--0--0-x-2--0-------0------4--4-x-5--5-5-5-5-x---
A||---------------0----0-2-4---2-x--2--2-x-5--5-5-5-5-x---
E||----------------------------------------3--3-3-3-3-x---
+ + + + + +
herido, me tienes como un ave sin
Re La Sim Sol
e--2--2--2--2-x-------------------2--2-x-3--3-3-3-3-x---
B--3--3--3--3-x-2-(3-5-3-----3--)-3--3-x-3--3-3-3-3-x---
G--2--2--2--2-x-2-(------4-2---4)-4--4-x-4--4-4-4-4-x---
D--0--0--0--0-x-2--0-2-0-----0----4--4-x-5--5-5-5-5-x---
A---------------0--------2-0---2--2--2-x-5--5-5-5-5-x---
E----------------------------------------3--3-3-3-3-x---
+ + + + + +
su nido, estoy solo como arena sin su mar.
Re La Sim Sol
e--2--2--2--2-x-------------------2--2-x-3--3-3-3-3-x-||
B--3--3--3--3-x-2-*3-----2-3----*-3--3-x-3--3-3-3-3-x-||
G--2--2--2--2-x-2-*--2-4-----4-x*-4--4-x-4--4-4-4-4-x-||
D--0--0--0--0-x-2--0-------0------4--4-x-5--5-5-5-5-x-||
A---------------0----0-2-4---2-x--2--2-x-5--5-5-5-5-x-||
E----------------------------------------3--3-3-3-3-x-||
+ + + + + +
-PUNTEO 2.
-PRE-ESTRIBILLO:
Quien detendra la lluvia en mi, oh no no,
Sim Sol La Fa#m
e||--2--2-2-2--x-x-x--3-3--3-3--x-x--5--5-5-5--x-x-x--2-2--2-2--x-x--
B||--3--3-3-3--x-x-x--3-3--3-3--x-x--5--5-5-5--x-x-x--2-2--2-2--x-x--
G||--4--4-4-4--x-x-x--4-4--4-4--x-x--6--6-6-6--x-x-x--2-2--2-2--x-x--
D||--4--4-4-4--x-x-x--5-5--5-5--x-x--7--7-7-7--x-x-x--4-4--4-4--x-x--
A||--2--2-2-2--x-x-x--5-5--5-5--x-x--7--7-7-7--x-x-x--4-4--4-4--x-x--
E||-------------------3-3--3-3--x-x--5--5-5-5--x-x-x--2-2--2-2--x-x--
se me ha inundado el corazon.
Sim Sol
e--2--2-2-2--x-x-x--3-3--3-3--x-x--------0-------0--5----||
B--3--3-3-3--x-x-x--3-3--3-3--x-x----3-------3-----------||
G--4--4-4-4--x-x-x--4-4--4-4--x-x--2---2---2---2---------||
D--4--4-4-4--x-x-x--5-5--5-5--x-x------------------------||
A--2--2-2-2--x-x-x--5-5--5-5--x-x------------------------||
E-------------------3-3--3-3--x-x------------------------||
Quien detendra la lluvia en mi, oh_________
Sim Sol La Fa#m
e||--2--2-2-2--x-x-x--3-3--3-3--x-x--5--5-5-5--x-x-x--2-2--2-2--x-x--
B||--3--3-3-3--x-x-x--3-3--3-3--x-x--5--5-5-5--x-x-x--2-2--2-2--x-x--
G||--4--4-4-4--x-x-x--4-4--4-4--x-x--6--6-6-6--x-x-x--2-2--2-2--x-x--
D||--4--4-4-4--x-x-x--5-5--5-5--x-x--7--7-7-7--x-x-x--4-4--4-4--x-x--
A||--2--2-2-2--x-x-x--5-5--5-5--x-x--7--7-7-7--x-x-x--4-4--4-4--x-x--
E||-------------------3-3--3-3--x-x--5--5-5-5--x-x-x--2-2--2-2--x-x--
mi amor___. Solo tu puedes pararla.
Sol Sim Sol La Sol La
e--3--3-3--3--2-2--3-3--5----3--3------5--5---------------||
B--3--3-3--3--3-3--3-3--5----3--3------5--5---------------||
G--4--4-4--4--4-4--4-4--6----4--4------6--6---------------||
D--5--5-5--5--4-4--5-5--7----5--5------7--7---------------||
A--5--5-5--5--2-2--5-5--7----5--5------7--7---------------||
E--3--3-3--3-------3-3--5----3--3------5--5---------------||
-ESTRIBILLO:
En el estribillo la 1Є guitarra toca el PUNTEO 1 y la 2Є
guitarra rasguea los siguientes acordes:
RE
Sigue lloviendo,
SIm
le sigue lloviendo al corazon,
SOL RE LA
dime que diablos voy a hacer.
RE
Sigue lloviendo,
SIm
le sigue lloviendo al corazon,
SOL
oh no no,
RE LA RE
y en mis ojos no ha parado de llover.
-VERSOS 3:
Esta parte se toca igual que VERSOS 2, solo que con un compas mas, que es:
Re La Sim Sol
e--2--2--2--2-x-------------------2--2-x-3--3-3-3-3-x---||
B--3--3--3--3-x-2-(3-5-3-----3--)-3--3-x-3--3-3-3-3-x---||
G--2--2--2--2-x-2-(------4-2---4)-4--4-x-4--4-4-4-4-x---||
D--0--0--0--0-x-2--0-2-0-----0----4--4-x-5--5-5-5-5-x---||
A---------------0--------2-0---2--2--2-x-5--5-5-5-5-x---||
E----------------------------------------3--3-3-3-3-x---||
+ + + + + +
No te comprendo,
no entiendo que paso,
si te di todo,
quizas te di de mas.
Dime que falto,
dime que sobro,
dime que paso,
pero dime algo,
pues me estoy muriendo.
-PUNTEO 2.
-PRE-ESTRIBILLO.
-ESTRIBILLO.
-PUNTEO 3:
e||--0-0--0-0--0-0--0-0--0---|| ||--2-3-2-0----||
B||--3-3--2-2--0-0--2-2--2---|| ||----------3--||
G||*------------------------*|| x4 ||-------------|| x1
D||*------------------------*|| ||-------------||
A||--------------------------|| ||-------------||
E||--------------------------|| ||-------------||
-PUNTEO 4:
Re Fa#m
e||-----------------------------------------------------------
B||------3-----2-----0-----2----------3-----2-----0--3--------
G||*---2-----2-----2-----2---2------2-----2-----2-------2-----
D||*-0-----0-----0-----0--------0-4-----4-----4------------4--
A||-----------------------------------------------------------
E||-----------------------------------------------------------
Re Fa#m
e-------------------------------------------------2-3-2-0----||
B-----3-----2-----0-----2----------3-----2-----0----------3--||
G---2-----2-----2-----2---2------2-----2-----2--------------*|| x2
D-0-----0-----0-----0--------0-4-----4-----4----------------*||
A------------------------------------------------------------||
E------------------------------------------------------------||
Y despues viene esta parte:
Ah____________________________________________________
e||--5--5-5-5--5-5-5--5-5-5--5-5-3--3-3-3--3-3-5--5-5-5--5-5---||
B||--5--5-5-5--5-5-5--5-5-5--5-5-3--3-3-3--3-3-5--5-5-5--5-5---||
G||--6--6-6-6--6-6-6--6-6-6--6-6-4--4-4-4--4-4-6--6-6-6--6-6---||
D||--7--7-7-7--7-7-7--7-7-7--7-7-5--5-5-5--5-5-7--7-7-7--7-7---||
A||--7--7-7-7--7-7-7--7-7-7--7-7-5--5-5-5--5-5-7--7-7-7--7-7---||
E||--5--5-5-5--5-5-5--5-5-5--5-5-3--3-3-3--3-3-5--5-5-5--5-5---||
-ESTRIBILLO.
-Ahora viene la parte en que se repite en las guitarras el mismo
patron que en los VERSOS 1, pero claro improvisan sobre los mismos
acordes, y no es plan de poner exactamente todo lo que hagan,
yo creo que con saber eso es suficiente.

Repiten el patron 4 veces. despues otras 4 con la frase
'sigue lloviendo, sigue lloviendo, sigue lloviendo sigue al corazon',
y otras 4 veces con 'no para de llover'
-FINAL:
e||-----------------------------------0---2---0----
B||----3---3---3---3---3------3---3----------------
G||--2---2---2---2---2------2---2---2---2---2------
D||------------------------------------------------
A||------------------------------------------------
E||------------------------------------------------

e----2---2---3---3---3------2---2---0----5~~----||
B--3---3---3---3---3------3---3---3---3--3~~----||
G----------------------------------------2~~----||
D----------------------------------------0~~----||
A-----------------------------------------------||
E-----------------------------------------------||




Ваше мнение



Капча