+-----------------------------------------------+
| Mana |
| Nada que Perder |
| Alex -Fher |
| Revolucion de Amor() |
+-------------------------------------------TAB-+
=============DEL ROCK EN ESPA~OL=================
Evil Crow
Intro : Light Distortion Guitar
e|----------0-----------------------------------------------------------|
B|------------1---------0--1--3---------------3-------------------------|
G|----------------------------------------------4-------4---4-5-4-------|
D|-3-3-3-3-------3-3-3-----------------5-5-5--------5--------------5----|
A|----------------------------------------------------------------------|
E|----------------------------------------------------------------------|
Then Guitar 1 plays Intro and Guitar 2 plays this at the same time:
Listen to the song for Strumming Pattern.
F G
e|--1-x-1---3-x-3---|
B|--1-x-1---3-x-3---|
G|--2-x-2---4-x-4---|
D|--3-x-3---5-x-5---|
A|--3-x-3---5-x-5---|
E|--1-x-1---3-x-3---|
VERSE Distortion Guitar
F G
e|--1-x-1---3-x-3---|
B|--1-x-1---3-x-3---|
G|--2-x-2---4-x-4---|
D|--3-x-3---5-x-5---|
A|--3-x-3---5-x-5---|
E|--1-x-1---3-x-3---|
CHORUS
2x
With this ends the chorus
e|-----------------------------------------------------------------------|
B|-----------------------------------------------------------------------|
G|--5--5--4--2--5--5--2----5-/-7-----------------------4-----------------|
D|--5--7--5--3--7--5--3----5-/-7------{chorus again}---5-----------------|
A|--3--7--5--3--7--3--3----3-/-5-----------------------5-----------------|
E|--x--5--3--1--5--x--1----x-/-x-----------------------3-----------------|
BRIDGE
Liste song for correct strumming
2x
e|----------------------------------------|
B|----------------------------------------|
G|--5-5-x-5----5-5-----------5-4----------|
D|--7-7-x-7----5-5--3-x-3-3--5-4----------|
A|--7-7-x-7----3-3--3-x-3-3--3-2----------|
E|--5-5-x-5---------1-x-1-1---------------|
3rd Time
e|-------------------------------------------|
B|-------------------------------------------|
G|--5-5-x-5----5-5-----------5-4-------------|
D|--7-7-x-7----5-5--3-x-3-3--5-4-----5-5-5---|
A|--7-7-x-7----3-3--3-x-3-3--3-2-----5-5-5---|
E|--5-5-x-5---------1-x-1-1----------3-3-3---|
SOLO
e|-----------------------------------------------------------------------------------|
B|-----------------------------------------------------------------------------------|
G|--------7-4-4-5~---------7-4-4-5~--------------------------------------------------|
D|-5-5-5------------5-5-5--------------7-7-7--9-9-9--10-10-10--12-12-12--9-10--------|
A|-----------------------------------------------------------------------------------|
E|-----------------------------------------------------------------------------------|
e|----------------------------------------------|
B|----------------------------------------------|
G|----------------------------------------------|
D|-5-5-5-5-5--7-7-7-7-7~-~----------------------|
A|----------------------------------------------|
E|----------------------------------------------|
2x
e|------------------------------------------------|
B|----------12----15-12-----------15--12-13-------|
G|-12-12-12---------------12-12-------------------|
D|------------------------------------------------|
A|------------------------------------------------|
E|------------------------------------------------|
e|----------------------------------------------------------------------|
B|--13-12---------------------------------------------------15/---------|
G|---------12--10-10-12-12-9-9--10-10-9-9--10--12~-~--------14/---------|
D|----------------------------------------------------------------------|
A|----------------------------------------------------------------------|
E|----------------------------------------------------------------------|
The song ends with this little chorus, is not the full chorus.
e|------------------|
B|------------------|
G|--5---5---4---2---|
D|--5---7---5---3---| { Many times }
A|--3---7---5---3---|
E|--x---5---3---1---|
Tabbed by Evil Crow
Any comments, correction and suggestions, email me ([email protected])




Ваше мнение



Капча