Маnб - Eres Me Religion
----------------------
E E/D# C#m
e---------0-|---------0-|-------------------
B-----------|-----------|------------4------
G------4----|------4----|------6----------4-
D---2-------|---1-------|----6----6-----6---
A-----------|-----------|--4----------------
E-----------|-----------|-------------------
Verse:
F#m B E A
Iba caminando por las calles empapadas en olvido
F#m B E
Iba por los parques con fantasmas y con бngеlеs санdоs.
F#m B
Iba sin luz, iba sin sol,
E A
iba sin un sentido, iba muriйndоmе.
F#m B
Iba volando sobre el mar
E
con las alas rotas.
F#m B
Ay amor apareciste en mi vida
E A
y me curaste las heridas.
F#m B
Ay amor eres mi luna, eres mi sol,
E
eres mi pan de cada dна

F#m B
Apareciste con tu luz.
E
No, nunca te vayas,
A
oh, no te vayas, no
F#m B
Тъ eres la gloria de los dos
E
hasta la muerte.
B
En un mundo de ilusiуn,
C#m
yo estaba desahuciado,
B Bbdim
yo estaba abandonado.
A
Vivна sin sentido,
B
pero llegaste тъ.
E G# C#m
Ay, amor тъ eres mi rеligiуn.
A A/G#
Тъ eres luz, тъ eres mi sol.
F#m B
Abre el соrаzуn, abre el соrаzуn.
E E/D# C#m
e---------0-|---------0-|-------------------
B-----------|-----------|------------4------
G------4----|------4----|------6----------4-
D---2-------|---1-------|----6----6-----6---
A-----------|-----------|--4----------------
E-----------|-----------|-------------------
F#m B
Hace tanto tiempo соrаzуn,
E A
vivна en el dolor, en el olvido.
F#m B
Ay, amor eres mi веndiсiуn, mi rеligiуn,
E
eres mi sol que cura el frно.
F#m B
Apareciste con tu luz,
E
no, no, no me abandones.
A
No, nunca mi amor.
F#m B
Gloria de los dos,
E
тъ eres sol, tu eres mi todo
toda тъ eres веndiсiуn.
B
En un mundo de ilusiуn,
C#m
yo estaba desahuciado,
B Bbdim
yo estaba abandonado.
A
Vivна sin sentido,
B
pero llegaste тъ.
E G# C#m
Ay, amor тъ eres mi rеligiуn.
A A/G#
Тъ eres luz, тъ eres mi sol.
F#m B
Abre el соrаzуn, abre el соrаzуn.
E G# C#m
Ay, amor тъ eres mi rеligiуn.
A A/G#
Тъ eres luz, тъ eres mi sol.
F#m B
Abre el соrаzуn, abre el соrаzуn.
E E/D# C#m B
Vivirй siempre a tu lado con tu luz.
oh, oh, oh
E E/D#
Моrirй estando a tu lado,
C#m B
eres gloria y веndiсiуn,
(E E/D# C#m B) -- > and repeating till the end
oh, oh, oh
Eres tu mi веndiсiуn.
Eres тъ mi rеligiуn, yee.
oh, oh, oh
Eres тъ mi eternidad,
y hasta eres sаlvасiуn.
oh, oh, oh
No tenia nada.
Y hoy te tengo con la gloria,
con la gloria, con la gloria.
amor, amor, amor, amor, amor
Eres тъ mi веndiсiуn.
Eres mi luz, eres mi sol.
------
E/D# |
0 |
0 |
1 |
1 |
X |
X |
---------------------------------
Felipe Fontoura
[email protected]
ICQ 60257367




Ваше мнение



Капча