tab made by rubs

intro & versos
e-----------------7-------------------------5-------------------------5--------
B------------8----------8-------------5---------5---------------5----------5---
G---------9-----9----9----9--------7-----7----7----7---------6-----6-----6----6
D--------------------------------------------------------0---------------------
A------------------------------0-----------------------------------------------
E------0-----------------------------------------------------------------------

e------------------3-----2-----0----
B-------------3---------------------
G-----------4---4-----4-------------
D-----------------------------------
A-----------------------------------
E-------3---------------------------




Ваше мнение



Капча