Hi, my name is German Ahumada and I'd like to share this tabs with all of you.
Questions or comments to [email protected] Enjoy.
El Borracho
MANA (Cuando Los Angeles Lloran- 1995)
Intro:
1. ----------------------------|------------------------------|
2. ----------------------------|------------------------------|
3. --------------------------5-|-------------------------5-7--|
4. --3-5-5-3-3-5-5-3-3-5-5-3---|-3-5-5-3-3-5-5-3-3-5-5-3------|
5. ----------------------------|------------------------------|
6. ----------------------------|------------------------------|
1. ----------------------------|--------------------------|
2. ----------------------------|--------------------------|
3. --------------------------5-|--------------------------|
4. --3-5-5-3-3-5-5-3-3-5-5-3---|-3-5-5-3-3-5-5-3-3-5-5-3--|
5. ----------------------------|--------------------------|
6. ----------------------------|--------------------------|
1. --2-2-2-5-5-2-3-0--0-0-2-------0--|--2-2-2-5-5-2-3-0--0-0-2----------|
2. --3-3-3-7-7-3-5-2--2-2-3-3-3-1-2--|--3-3-3-7-7-3-5-2--2-2-3-3-3-1-0--|
3. -------------------------4-4-2----|-------------------------4-4-2-0--|
4. ----------------------------------|----------------------------------|
5. ----------------------------------|----------------------------------|
6. ----------------------------------|----------------------------------|
D A D A
Llegando a Vallarta me quisieron atorar,
D A D A
llegandito a la playa me quisieron enfiestar,
D A
con diez tequilas pa’ empezar,
D A
diez margaritas pa’ arrancar,
D A
la borrachera fue mortal,
D A
sali arrastrando del lugar.
Opale!!!
1. --5-5-5--9--9-5-2-2-3-5--2-2-0---0--|--5-5-5--9--9-5-2-2-3-5--0-0--------|
2. --7-7-7-10-10-7-3-3-5-7--3-3-2-3-2--|--7-7-7-10-10-7-3-3-5-7--2-2-3-1-0--|
3. -------------------------------4----|-----------------------------4-2-0--|
4. ------------------------------------|------------------------------------|
5. ------------------------------------|------------------------------------|
6. ------------------------------------|------------------------------------|
D A D A
No paraba el mariachi de cantar y de cantar,
D A D A
no paraba el mariachi de cantar y de pistear,
D A
dos seсoritas para mi,
D A
dos seсoritas pa’ bailar,
D A
me daban copas sin parar,
D A
que me pusieron hasta atras.
Coro:
G D A D
Ahi viene el borracho, ya ni puede caminar,
G D A D
ahi viene el borracho que no para de chupar,
G D A D
y con los tequilas enfiesto su corazon,
G D A D
y con el mariachi se rompio su corazon.
1. --5-5-5--9--9-5-2-2-3-5--2-2-0---0--|--5-5-5--9--9-5-2-2-3-5--0-0--------|
2. --7-7-7-10-10-7-3-3-5-7--3-3-2-3-2--|--7-7-7-10-10-7-3-3-5-7--2-2-3-1-0--|
3. -------------------------------4----|-----------------------------4-2-0--|
4. ------------------------------------|------------------------------------|
5. ------------------------------------|------------------------------------|
6. ------------------------------------|------------------------------------|
D A D A
Me avente unos tequilas, me pusieron bien feliz,
D A D A
me avente unos mezcales con todita y la lombriz,
D A
pero el tequila estaba bravo,
D A
y con tus besos yo ahogado,
D A
y con la cruda acabado,
D A
pero feliz como lombriz.
G D A D
Ahi viene el borracho, ya ni puede caminar,
G D A D
ahi viene el borracho que no para de chupar,
G D A D
y con los tequilas enfiesto su corazon,
G D A D
y con el mariachi se rompio su corazon.
1. ----------------------------|------------------------------|
2. ----------------------------|------------------------------|
3. --------------------------5-|-------------------------5-7--|
4. --3-5-5-3-3-5-5-3-3-5-5-3---|-3-5-5-3-3-5-5-3-3-5-5-3------|
5. ----------------------------|------------------------------|
6. ----------------------------|------------------------------|
1. ----------------------------|--------------------------|
2. ----------------------------|--------------------------|
3. --------------------------5-|--------------------------|
4. --3-5-5-3-3-5-5-3-3-5-5-3---|-3-5-5-3-3-5-5-3-3-5-5-3--|
5. ----------------------------|--------------------------|
6. ----------------------------|--------------------------|
D G
Miren quien llego,
D G
ahi viene el borracho,
D G
miren, ya esta aqui,
A D
no se puede parar,
D G
miren quien llego,
D G
ahi viene el borracho,
D G
miren, quien llego,
A D
ni un tequila mas.
1. --5-5-5--9--9-5-2-2-3-5--2-2-0---0--|--5-5-5--9--9-5-2-2-3-5--0-0--------|
2. --7-7-7-10-10-7-3-3-5-7--3-3-2-3-2--|--7-7-7-10-10-7-3-3-5-7--2-2-3-1-0--|
3. -------------------------------4----|-----------------------------4-2-0--|
4. ------------------------------------|------------------------------------|
5. ------------------------------------|------------------------------------|
6. ------------------------------------|------------------------------------|
A D
Mira que borracho va,
G A
ah que borracho es,
A D
mira que borracho va,
G A
ah que borracho es,
A D
mira que borracho va,
G A
ah que borracho es,
A D
mira que borracho va,
G A
ah que borracho.
Outro:
Ay compadre, que necio es!!
1. --7-7-7-8-8-8-8-5-5-|-5-5-5-7-7-7-7-3-3--|
2. --8-8-8-8-8-8-8-7-7-|-7-7-7-7-7-7-7-5-5--|
3. --------------------|--------------------|
4. --------------------|--------------------|
5. --------------------|--------------------|
6. --------------------|--------------------|
Ahi dejalo en su canton!!!!!
1. ------------------------------------------------------|
2. -3-----3-5-3---3-5-3-----3-5-3---3---3-5-3---3-5-3----|
3. ---2-4-------4-------2-4-------4---4-------2-------4--|
4. ------------------------------------------------------|
5. ------------------------------------------------------|
6. ------------------------------------------------------|
1. --7-7-7-8-8-8-8-7-10p9p7-|-5-5-5-5p3-2-0-3-3-2-0----|
2. --8-8-8-8-8-8------------|-----------------------3--|
3. -------------------------|--------------------------|
4. -------------------------|--------------------------|
5. -------------------------|--------------------------|
6. -------------------------|--------------------------|
1. ------------------------------------------------------|
2. -3-----3-5-3---3-5-3-----3-5-3---3---3-5-3---3-5-3----|
3. ---2-4-------4-------2-4-------4---4-------2-------4--|
4. ------------------------------------------------------|
5. ------------------------------------------------------|
6. ------------------------------------------------------|
1. --7-7-7-8-8-8-8-5-5-|-5-5-5-7-7-7-7-3-3--|
2. --8-8-8-8-8-8-8-7-7-|-7-7-7-7-7-7-7-5-5--|
3. --------------------|--------------------|
4. --------------------|--------------------|
5. --------------------|--------------------|
6. --------------------|--------------------|
1. ------------------------------------------------------|---------------|
2. -3-----3-5-3---3-5-3-----3-5-3---3---3-5-3---3-5-3----|---------------|
3. ---2-4-------4-------2-4-------4---4-------2-------4--|-SIGUE TOCANDO-|
4. ------------------------------------------------------|----HASTA EL---|
5. ------------------------------------------------------|----FADE OUT---|
6. ------------------------------------------------------|---------------|




Ваше мнение



Капча