Group: Маnб
Track: Cuando los Angeles Lloran (Unplugged) ? Intro.


Capo on 2nd. Fret. Played fingerstyle on steele string acoustic
Note; The symbols ? ? and ? / ? refer to hammers and pull-offs respectively

E ]-------2-------------2----0--------------------------3----------------3-----2-----0--------------|
B ]-------3---------3--------------3-------0------------0----------0-----------------------2--------|
G ]-------2-----2------------------2-------0------2-----0-----0----------------------------------2--|
D ]-------0-----------------------------------------4---2-------------------------------------------|
A ]-----------------------------------------------------2-----------------------------0-------------|
E ]----------------------------------3------------------0-------------------------------------------|


E }-------2-------------2----0--------------------------3----------------3----------------------------------|
B ]-------3---------3--------------3-------0------------0----------0-----------0------3-----2---0----2-----|
G ]-------2-----2------------------2-------0------2-----0-----0---------------------------------------------|
D ]-------0-----------------------------------------4---2---------------------------------------------------|
A ]-----------------------------------------------------2-----------------------------0---------------------|
E ]----------------------------------3------------------0---------------------------------------------------|
Play this section twice.
_________Stab________________________________Stab_________________Stab
E }-------2----------5------3-----2-----0-------------------0----------------------0-----------------2-----0--------------------|
B ]-------3-------------------------------------3-2--0----2----------------2-------------3---------------------3----2---0---|
G ]-------2-------------------------------------------------2---------2--------------------2------------------------------------|
D ]-------0-------------------------------------------------2------------------------------0------------------------------------|
A ]---------------------------------------------------------0------------------------------2------------------------------------|
E ]-----------------------------------------------------------------------------------------------------------------------------|


E }----------------------------------------------------------------------0----2----3----2---0----------------------------------|
B ]----------------------------0-------------3-------------------0--------------------------------3-----3-----2--0----2-------|
G ]--2-----0------------0------------2-------------0---------------------------------------------------------------------------|
D ]---------------0------------------------------------------------------------------------------------------------------------|
A ]-------------------------------------------------------------------------------------------------------0--------------------|
E ]---------0-------------------------2--------------0-------------------------------------------------------------------------|



E }----------------------------0-----2-----3------5---------------------2-----0----------------------------|
B ]--------0-----2-----3--------------------------3-----------3--------------------------3------2-----------|
G ]--2---------------------------------------------2-----------2--------------------------------------------|
D ]---------------------------------------------------------------------------------------------------------|
A ]-------------------------------------------------------------2--------------------------0----------------|
E ]------------------------------------------------------------------------3--------------------------------|


E }-----------------------------------------------------------------------|
B ]-----------------------------------3------2---/---3-------------------|
G ]-------------------------4---------------------------------------------|
D ]----------------4------------------------------------------------------|
A ]-------2---------------------------------------------------------------|
E ]-----------------------------------------------------------------------|




Ваше мнение



Капча