Song: Ay Doctor!
Artist: Mana
Tabbed by: Rafael E. Vasquez Y. ([email protected])

Intro/Verse
G|--------------------------------------| 24X
D|----2-444---2------2-444/7-4----------|
A|-4--------5------4--------------------|
E|--------------------------------------|

Chorus
G|--------------------------------------|
D|----222/4-----222/4-------------------|
A|-----------00--------22-000-2-----2-0-|
E|-22---------------------------22------|

G|--------------------------------------|
D|----222/4-----222/4-------------------|
A|-----------00-------22-0222-2222-2222-|
E|-22-----------------------------------|

Bridge
G|--------------------------------------| 4x
D|--------------------------------------|
A|--------------------2-0---------------|
E|-2222--2222--2222---------------------|

Bridge2
G|--------------------------------------|
D|--------------------------------------|
A|-0/2--2-0-----------------------------|
E|-----------2-0------------------------|

G|--------------------------------------|
D|----222/4-----222-------222/4----22---|
A|------------------2-----------------4-|
E|-22-------22---------22-------22------|

G|-----------------------------------------------|3x
D|-----------------------------------------------|
A|-555-55-55-5--222-22-22-2--------------------2-|
E|--------------------------222-2-22 2-22-2-22---|

G|--------------------------------------|
D|--------------------------------------|
A|--44444444----------------------------|
E|--------------------------------------|

Chorus 1x

Outro
G|--------------------------------------|
D|----22-2-4----------------------------|
A|--------------22-2-0------------------|
E|-22--------22-------------------------|
Repeat the outro to the end...




Ваше мнение



Капча