From: [email protected]
MAGNAPOP - Slowly, Slowly (Hot Boxing)
---------------------------------------------------------------------------
TAB done by Menno Luitjes, 14-04-1994

This very easy but beautiful song is completely played with powerchords,
so enjoy!

HERE ARE THE FIGURES I USE:
(Distortioned & Loud)
e|------------------------------------[INTRO]
B|------------------------------------
G|--7-7-7---------------------------x-
D|--7-7-7--7-7-7-7---9-9-9-9-9-9-9--x-
A|--5-5-5--7-7-7-7---9-9-9-9-9-9-9--x-
E|---------5-5-5-5---7-7-7-7-7-7-7--x-
(All notes here should be played MUTED!)
e|-----------------------------------------------------------------------[FIG1]
B|-----------------------------------------------------------------------
G|-----------------------------------------------------------------------
D|-----------------------------------------------------------------------
A|------7-------7-------9-------9--------12----------12----------12------
E|--5-5---5-5-5---5/7-7---7-7-7--7/10-10----10-10-10----10-10-10----10\5-
(Distortioned & Loud again)
e|--------------------------[FIG2]
B|--------------------------
G|--------------7--7-7-7--7-
D|--7--7--7-7---7--7-7-7--7-
A|--7--7--7-7---5--5-5-5--5-
E|--5--5--5-5---------------
e|--------------------------------------------..
B|--------------------------------------------..
G|--7-/-12-12-12-12-12-12-12-/---19------19---..
D|--7-/-12-12-12-12-12-12-12-/-----19------19-..
A|--5-/-10-10-10-10-10-10-10-/-17------17-----..
E|--------------------------------------------..
e.----------------------------------------[FIG3]
B.----------------------------------------
G.--12-12-12-12-12-12-12-/---19------19---
D.--12-12-12-12-12-12-12-/-----19------19-
A.--10-10-10-10-10-10-10-/-17------17-----
E.----------------------------------------
e|-----------------------------[FIG4]
B|-----------------------------
G|-----------------------------
D|--7--7--7-7-/--9--9-9-9--9-9-
A|--7--7--7-7-/--9--9-9-9--9-9-
E|--5--5--5-5-/--7--7-7-7--7-7-
e|-----------------------------[FIG5]
B|-----------------------------
G|-------------------x--7--7-7-
D|--7--7--7-7-/--9-9-x--7--7-7-
A|--7--7--7-7-/--9-9-x--5--5-5-
E|--5--5--5-5-/--7-7-x---------
e|---------------------------------------------[END]
B|---------------------------------------------
G|--7-7----7-7---------------------------------
D|--7-7----7-7---7-7-7-9--9-9----9-9---7-7-7-9-
A|--5-5(..)5-5---7-7-7-9--9-9----9-9---7-7-7-9-
E|---------------5-5-5/7--7-7(..)7-7---5-5-5/7-

AND THIS IS THE ORDER I PLAY THEM IN:
2x[intro],
3x[fig1], 3x[fig2],
3x[fig1], 4x[fig2], 1x[fig3], 2x[fig2],
3x[fig1], 4x[fig2], 1x[fig3], 4x[fig2],
2x[fig4], 8x[fig5],
1x[end].

LYRICS:
------
I feel coarse and strain
Interupt my mind again
I am being clear
I am sad to say i'm living here
They do it all the time
They do it all the time
It tries to interupt me
Interupt my mind
In a quiet room you wait
In another room they fight
They do it all the time
They do it all the time
They do it all the time
Single ..??..
Clearly defined i'm wasting time again
Slowly coarse and strain goes
Counting beer again no (?)
Stareing eye to eye
Then slowly me again
In another room they sit
Listening to other lies
They do it all the time
They do it all the time
They do it all the time
Single ..??..
Clearly defined i'm wasting time again
Slowly coarse and strain goes
Counting beer again no (?)
Stareing eye to eye
Then slowly me again
Slowly, slowly
Slowly me again
Slowly me again
Slowly me again
Slowly me again
Slowly me again
Slowly me again
Slowly me again
Slowly me again
(Couldn't figure out all sentences...)
---------------------------------------------------------------------------
Amp settings:
___ ___ ___ ___
/ /\ / \ /\ \ /\ \
( 6 ) ( 9 ) ( 4 ) ( 3 )
\___/ \__\/ \___/ \___/
TREBLE MID BASS GAIN
/ = slide UP
\ = slide DOWN
(..) = didn't feel like typing the same thing over and over again
xxx = play marked strings (muted) or do other strange things with them
*#*#*#*#*#*#*#*#*#*#*#*#*#*#*#*#*#*#*#*#*#*#*#*#*#*#*#*#*#*#*#*#*#*#*#*#*#*
Menno Luitjes
Isaak Hoornbeekstraat 32 PHONE: +31-(0)15-121222
2613 HH Delft EMAIL: [email protected]
the Netherlands
*#*#*#*#*#*#*#*#*#*#*#*#*#*#*#*#*#*#*#*#*#*#*#*#*#*#*#*#*#*#*#*#*#*#*#*#*#*
Date: Sun, 29 Oct 1995 16:01:11 -0500
From: [email protected] (Shleestak)
Subject: TAB "Slowly, Slowly" Magnapop
SLOWLY, SLOWLY
B|-----------------------|-----------------------|
G|--------------7-7-7-9--|--------------7-7-7-9--|
D|--12-12-12-12-7-7-7-9--|--12-12-12-12-7-7-7-9--|
A|--12-12-12-12-5-5-5-7--|--12-12-12-12-5-5-5-7--|
E|--10-10-10-10----------|--10-10-10-10----------|

pm......................
B|----------------------|
G|----------------------|
D|----------------------|
A|----7----7----9----9--|
E|--55-5-55-5-77-7-77-7-|
pm............................................
B|--------------------------------------------|
G|--------------------------------------------|
D|--------------------------------------------|
A|------12---------12---------12---------12---|
E|-10-10--10--10-10--10--10-10--10--10-10--10-|
harmonics...
B|----------------|-------------------------|
G|---------777777-|-------------------------|
D|---77777-777777-|--77777------------|
A|---77777-555555-|--77777------|
E|---55555--------|--55555------------------|
that's it i believe. hope you enjoy.
tabbed by shleestak. mail to:
[email protected]
[email protected]
"Dare to be honest, be yourself. A cowardly man......" -=Korn=-
FVGAZI.
me homepage.... http://comland.com/~darrend/Belial.htm




Ваше мнение



Капча