Date: Sun, 29 Oct 1995 16:01:00 -0500
From: [email protected] (Shleestak)
Subject: TAB "Skin Burns" Magnapop
This is Magnapop's Skin Burns, or atleast the way i play it.
SKIN BURNS
B|-------------------------------|
G|-------------------------------|
D|--13/14-14---------------------|
A|--11/12-1214-14-14-14-14-14-14-|
E|----------12-12-12-12-12-12-12-|
B|-------------------|
G|-------------------|
D|--------------5/7--|
A|--5-xx-5-xx*3*3/5--| *try a 7 here, see which sounds better
E|--3-xx-3-xx-5------| to yer ears. either one is fine w/ me.
B|-------------------------------|
G|-------------------------------|
D|--13/14-14---------------------|
A|--11/12-1214-14-14-14-14-14-14-|
E|----------12-12-12-12-12-12-12-|
pm..............|
B|-------------|------------------|
G|----5/7-7x---|------------------|
D|--5-5/7-7x7--|------------------|
A|--5-3/5-5x7--|-7-7-7-7-7-7-7-7--|
E|--3-------5--|-5-5-5-5-5-5-5-5--|
end of the song....
D|--14-14-14-14-14-14-14-14-14-14--|
A|--12-12-12-12-12-12-12-12-12-12--| X how ever long...
E|---------------------------------|
I believe that's most of it. tabbed by shleestak.
mail to:
[email protected]
[email protected]
"Dare to be honest, be yourself. A cowardly man......" -=Korn=-
FVGAZI.
me homepage.... http://comland.com/~darrend/Belial.htm




Ваше мнение



Капча