Date: Sun, 29 Oct 1995 16:01:06 -0500
From: [email protected] (Shleestak)
Subject: TAB "Piece of Cake" Magnapop
PIECE OF CAKE
pm..................|
B|---------------------|
G|---------------------|
D|---------------------|
A|-------------5-5-5---|
E|--3-3333332-2-2-2-2--|
a piece of cake....
B|--------------------|--------------------|
G|--------------------|--------------------|
D|--------------------|--------------------|
A|--5-5-5/7-5-44-444/-|--5-5-5/7-5-44-444--|
E|--3-3-3/5-2-22-222/-|--3-3-3/5-2-22-222--|
pm..................|
B|---------------------|
G|---------------------|
D|---------------------|
A|-------------5-5-5---|
E|--3-3333332-2-2-2-2--|
B|------------------|------------------|
G|-7-------------7--|-7-------------7--|
D|-7---7----5----7--|-7---7----5----7--|
A|-5---7----5----5--|-5---7----5----5--|
E|-----5----3-------|-----5----3-------|
pm..................|
B|---------------------|
G|---------------------|
D|---------------------|
A|-------------5-5-5---|
E|--3-3333332-2-2-2-2--|
B|--------------------------------|
G|--12-12-12h14-11-11-11-11-11-11-|
D|--------------------------------|
A|--------------------------------|
E|--------------------------------|
tabbed by shleestak.
mail to:
[email protected]
[email protected]
"Dare to be honest, be yourself. A cowardly man......" -=Korn=-
FVGAZI.
me homepage.... http://comland.com/~darrend/Belial.htm




Ваше мнение



Капча