Here is the main riff of this brand great new Madonna's song
I'm pretty sure of it, it's sounds nice, but you can write me if you have any objections.
ENJOY!!
E-------------------------
B-1---1-1---1-0---0-1-----
G---------------0---------
D---2-----2---------------
A-------------------------
E-------------------------
E-------------------------
B-1---1-1---1-0---0-1-----
G---------------0---------
D---2-----2---------------
A-------------------------
E------------------------- etc...
Just repeat this all along the song

Elph's work
[email protected]




Ваше мнение



Капча