I just started tabbing this song a few minutes ago, so here's the main part
of the song that's also the intro. I've looked all over the net for this song
but couldn't find it anywhere, so if anyone else wants to take a stab at this
song DO IT!
E--13---13---11---11---------------------]--13---13---11---11------------------|
B--13---13---11---11---13---13--------13-]--13---13---11---11---13--13------11-|
G--13---13---11---11---13---13---13---13-]--13---13---11---11---13--13--13--11-|
D----------------------13---13---13---13-]----------------------13--13--13--11-|
A--------------------------------13------]------------------------------13-----|
E----------------------------------------]-------------------------------------|
E------------------]---------------------------------------------11--13--11----|
B---11--11--13--11-]--13---13---11--11---9---9-------11--11--11--11--13--11----|
G---------------11-]--10---10---10--10---10--10--10--11------------------------|
D---------------11-]--11---11---11--11---10--10------11------------------------|
A------------------]-----------------------------------------------------------|
E------------------]-----------------------------------------------------------|
E-----------------------------------]-------11---9--------------------|
B---13--13--11--11--9---9-----------]-------12---11---13------12--11--|
G---10--10--10--10--10--10--10--13--]--13---13---10---13--13--13--12--|
D---11--11--11--11--11--11----------]-------14--------13------13------|
A-----------------------------------]---------------------------------|
E-----------------------------------]---------------------------------|
I've gotta get some sleep, but hopefully I won't be too lazy to get up and
finish tabbing the rest later. If you have another version please post it
around somewhere.




Ваше мнение



Капча