#----------------------------------PLEASE NOTE--------------------------------#
#This file is the author's own work and represents their interpretation of the#
#song. You may only use this file for private study, scholarship, or research.#
#-----------------------------------------------------------------------------#
#-- File created with Instab - http://www.pconline.com/~smcarey/instab.html --#
#-----------------------------------------------------------------------------#
Author/Artist: Madonna
Title: one more chance
Album: something to remember
Year: 1995
Transcribed by: spoon?
Email: [email protected]
[email protected]-------------|
-|-----------1-3----1----1--|--------1--1-1--1--|--------------|--------------|
-|---0h2--2--2----3----2----|---0h2--1--3----2--|--2-2--2-2-2--|--------------|
-|-3------3-------0----3----|-3------3-------3--|--3-3--3-3-3--|--------------|
-|--------1--0----x----x----|--------x--x-------|--3-3--3-3-3--|--------------|
-|----------------3----1----|--------4--3----1--|--1-1--1-1-1--|--------------|
-|--------------------0-------------------------------|-----------------------|
-|--------------------1-1-1--------3-----------3------|-----------------------|
-|-----0-2----------2----2-------3--3-3------3--3-----|-----------------------|
-|---------3-3----3------------3-----3-----3----------|-----------------------|
-|---3------3---0------------1-----------1--------0---|-----------------------|
-|-1-----------------------------------------------3--|-----------------------|
-|--------------------0---------------------------0---|-----------------------|
-|--------------------1-1-1--------3-----------1-3----|-----------------------|
-|-----0-2----------2----2-------3--3-3------3--------|-----------------------|
-|---------3-3----3------------3-----3-----3----------|-----------------------|
-|---3------3---0------------1-----------1------------|-----------------------|
-|-1--------------------------------------------------|-----------------------|
-|-1----1-1----1-----------------|-1---1--1-0---0--|--0----1-----|------------|
-|-3---3-----3-3--5---5--6-5--3--|-3--3---3---3----|--1--1-1--1--|------------|
-|---2----3-------6--6---7----2--|-3-3-------------|--1--3----2--|------------|
-|-0--------0-------5---------0--|-----------------|--3-------3--|------------|
-|----------------4------5-------|--------3---3----|--x--x-------|------------|
-|--------3----------------------|-3---------------|--4--3----1--|------------|
-|---------------|----------------|--------1--------0--|----------------------|
-|-3-3-3-3--2-2--|-5---5--6-5--3--|--------1---2-------|----------------------|
-|-2-2-2-2--2-2--|-6--6---7----2--|----2--3-3----0h2---|----------------------|
-|---------------|---5---------0--|-0-3----------------|----------------------|
-|-0-1------0----|-4------5-------|------------0-------|----------------------|
-|--------0------|----------------|------3-------------|----------------------|
-|-------------------|----------|---------------------------------------------|
-|-3-3-3-3-3-3-------|-3-3-3-3--|---------------------------------------------|
-|-2-4-4-2-2-2-------|-2-4-4-2--|---------------------------------------------|
-|-------0-----------|-------0--|---------------------------------------------|
-|---0-0-----0h2-0---|---0-0----|---------------------------------------------|
-|-1--------------2--|-1--------|---------------------------------------------|
LYRICS:
I turned around too late to see the fallen star
I fell asleep and never saw the sun go down
I took your love for granted
Thought luck was always on my side
I turned around too late and you were gone
So give me one more chance
Darling' if you care for me
Let me win your love
Cause you were always there for me
If you care for me, Be there for me
I like to play the queen of hearts and never thought I'd lose
I rolled the dice but never showed my hand
I planned it out so perfectly,
So you'd never leave a girl like me
I was a fool, but now I understand
So give me one more chance
Darling' if you care for me
Let me win your love
Cause you were always there for me
If you care for me, Be there for me
Here is the law of the land
You play with fire and you'll get burned
Here is the lesson I've learned
That you don't know what you've got till it's gone
So give me one more chance
Darling' if you care for me
Let me win your love
Cause you were always there for me
Gimme one more chance
Tell me that it's not too late
Let me win your love
Darling' please don't hesitate
If you care for me,
Be there for me
Give me one more chance --
[I'm not gonna bother with chord definitions no time. But the pick above is a rough idea to the] [song.
muting in where necessary (there is a lot of muting) Just listen to the song........]




Ваше мнение



Капча