like a virgin
by madona
bass version

INTRO
G|--------------------------------------------------|
D|-4-------4-4--------------------------------------|
A|----6-4-------6-4-6- x16 enter at ( 00:15-| )
E|--------------------------------------------------|

VERSE
G|----------------------------------------------------|
D|-6-6-6-6-6-6-6-6--6-6-6-6-6-6-6---------------------|
A|-------------------------------------------6--------| x1
E|----------------------------------------------------|

CHORUS 1
G|----------------------------------|
D|-4-------4-4----------------------|
A|----6-4-------6-4-6---------------| x6
E|----------------------------------|

BRIDGE
G|--------------------------------------------------------------------------------------------------------------|
D|-6-6-6-6-6-6-6-6--4-4-4-4-4-4-4-4--6-6-6-6-6-6-6-6--4-4-4-4-4-4-4-4-------------------------------------------|
A|---------------------------------------------------------------------------------------------4-4-4-4-4-4-4-6--|x1
E|--------------------------------------------------------------------------------------------------------------|

CHORUS 2
G|--------------------------------|
D|-4------------4-----------------|
A|----6-4----------6-4-6----------|x4
E|--------------------------------|

VERSE
G|----------------------------------------------------|
D|-6-6-6-6-6-6-6-6--6-6-6-6-6-6-6---------------------|
A|-------------------------------------------6--------|x1
E|----------------------------------------------------|

CHORUS 3
G|-----------------------------------|
D|-4-------4-4-----------------------|
A|----6-4-------6-4-6----------------| x6
E|-----------------------------------|

VERSE
G|----------------------------------------------------|
D|-6-6-6-6-6-6-6-6--6-6-6-6-6-6-6---------------------|
A|-------------------------------------------6--------|x1
E|----------------------------------------------------|

CHORUS 4
G|------------------------------------|
D|-4-------4-4------------------------|
A|----6-4-------6-4-6-----------------|x6
E|------------------------------------|

G|--------------------------------------------------------------------------------------------------------------|
D|-6-6-6-6-6-6-6-6--4-4-4-4-4-4-4-4--6-6-6-6-6-6-6-6--4-4-4-4-4-4-4-4-------------------------------------------|
A|---------------------------------------------------------------------------------------------4-4-4-4-4-4-4-6--|x1
E|--------------------------------------------------------------------------------------------------------------|

CHORUS 5
G|--------------------------------|
D|-4------------4-----------------|
A|----6-4----------6-4-6----------| x2
E|--------------------------------|

G|--------------------------------|
D|-4-------4-4--------------------|
A|----6-4-------6-4-6-------------| x2
E|--------------------------------|

VERSE
G|----------------------------------------------------|
D|-6-6-6-6-6-6-6-6--6-6-6-6-6-6-6---------------------|
A|-------------------------------------------6--------| x1
E|----------------------------------------------------|

CHORUS 6
G|----------------------------------------|
D|-4-------4-4----------------------------|
A|----6-4-------6-4-6---------------------| x2
E|----------------------------------------|

END
G|------------------------------------------------|
D|------------------------------------------------|
A|-6-6-6-6-6-6-6-6--------------------------------| x3
E|------------------------4-4-4-4-4-4-4-4---------|

G|-----------------------------------------|
D|-----------------------------------------|
A|-6-6-6-6-6-6-6-6-------------------------|
E|-----------------------------4--4--4-----|




Ваше мнение



Капча