artist:Madonna
song: Dont tell me
Tabbed by:Rolando Salcedo Escobedo
Intro:
D Am C G
--0h2-----------------------------------------
-----3-------1-stop---------------------------
-2----2------------------0--------------0-----
0----------2------------2--------------0------
----------0----------0h3---3—stop---0h2---2---
----------------------------------------------
D Am C G
--0h2------------------------------------
-----3-------1-stop----------------------
-2----2---------------------0------------
0----------2---------2-2---2-------------
----------0----------3-3-----3-----000-0-
----------------------------------3------
1st Verse:
D Am C G
--0h2-----------------------------------------
-----3-------1-stop---------------------------
-2----2------------------0--------------0-----
0----------2------------2--------------0------
----------0----------0h3----—-------0h2-------
----------------------------------------------
D Am C G
--0h2--------------------------------------
-----3-------------------------------------
-2----2--------------------0---------------
0--------------------2-2--2----------------
----------0----------3-3----3------0-------
----------------------------------3--------
D Am C G
--0h2-----------------------------------------
-----3-------1-stop---------------------------
-2----2------------------0--------------0-----
0----------2------------2--------------0------
----------0----------0h3----—-------0h2-------
----------------------------------------------
D Am C G
--0h2--------------------------------------
-----3-------------------------------------
-2----2------------------------------------
0----------------------2-------------------
----------0----------3-------------0-------
----------------------------------3--------
D Am C G
--0h2-----------------------------------------
-----3-------1-stop---------------------------
-2----2------------------0--------------0-----
0----------2------------2--------------0------
----------0----------0h3----—-------0h2-------
----------------------------------------------
D Am C G
--0h2--------------------------------------
-----3-------------------------------------
-2----2------------------------------------
0----------------------2-------------------
----------0----------3-------------0-------
----------------------------------3--------
D Am C G
--0h2-----------------------------------------
-----3-------1-stop---------------------------
-2----2------------------0--------------0-----
0----------2------------2--------------0------
----------0----------0h3----—-------0h2-------
----------------------------------------------
D Am C G
--0h2--------------------------------------
-----3-------------------------------------
-2----2-------------------0----------------
0--------------------2---2-----------------
----------0----------3-----3-------0-------
----------------------------------3--------
Violin Part arranged for guitar (D Am Cadd G)2x
Verse 2:
D Am C G
--0h2-----------------------------------------
-----3-------1-stop---------------------------
-2----2------------------0--------------0-----
0----------2------------2--------------0------
----------0----------0h3----—-------0h2-------
----------------------------------------------
D Am C G
--2p0--------------------------------------
-----0-------------------------------------
--------------------------0----------------
0--------------------2-2-2-----------------
----------0----------3-3---3-------0-------
----------------------------------3--------
D Am C G
--0h2-----------------------------------------
-----3-------1-stop---------------------------
-2----2------------------0--------------0-----
0----------2------------2--------------0------
----------0----------0h3----—-------0h2-------
----------------------------------------------
D Am C G
--0h2--------------------------------------
-----3-------------------------------------
-2----2-------------------0----------------
0--------------------2---2-----------------
----------0----------3-----3-------0-------
----------------------------------3--------
repeat this verses several times and thats all the song.
After the interlude the riff is just:
D Am C G
--0h2------------------------------------
-----3-------1-stop----------------------
-2----2---------------------0------------
0----------2---------2-2---2-------------
----------0----------3-3-----3-----000-0-
----------------------------------3------
Comments or stupid things you want to say about this tab or
if you have a doubt with any tab send me an e-mail to
[email protected], i am very good except about
Guns and Roses.
que onda pinche Andres gay, ya que la тавulей ya la puedes tocar,
quiubo, digo yo si tengo oido no como un amigo que trato de sacar
la de road trippinґ. Lo de gay es broma, jaja.




Ваше мнение



Капча