Madonna - Don't tell me
Album: Music
.
Intro:(PART 1)
E------0/2-----------------------S
B------------3-------0/1---------T
G---2----------------------------O
D-0-----------0------------------P
A-----------------0---------------
E---------------------------------
E-----------------------------------------
B-----------------------------------------
G-----------0-------S--------------------S
D-----0/2-----------T------------0-------T
A---3----------3----O-------0/2----------O
E-------------------P------3---------3---P

E------0/2------------------------S
B------------3-------0/1----------T
G---2-----------------------------O
D-0-----------0-------------------P
A-----------------0----------------
E----------------------------------
E-------------------------------------------
B-------------------------------------------
G---0-0--------0-----S---------------------S
D---------0/2--------T---------------------T
A---3-3----------3---O--------0-0-0--------O
E----------------------P----3-3------------P
verse:
(PART 2)
Don't tell.....
E------0/2-----------------------S
B------------3-------0/1---------T
G---2----------------------------O
D-0-----------0------------------P
A-----------------0---------------
E----------------------------------
E-----------------------------------------
B-----------------------------------------
G-----------0-------S--------------------S
D-----0/2----------T-------------0-------T
A---3----------3----O-------0/2----------O
E---------------------P----3---------3---P
Tell the rain...
E------0/2------------------------S
B------------3-------0/1----------T
G---2-----------------------------O
D-0-----------0-------------------P
A-----------------0----------------
E----------------------------------
E-------------------------------------------
B-------------------------------------------
G---0-0--------0-----S---------------------S
D---------0/2--------T---------------------T
A---3-3----------3---O--------0------------O
E----------------------P----3-3------------P
(PART 3)
Tell the wind
E------0/2-----------------------S
B------------3-------0/1---------T
G---2----------------------------O
D-0-----------0------------------P
A-----------------0---------------
E----------------------------------
E-----------------------------------------
B-----------------------------------------
G-----------0-------S--------------------S
D-----0/2----------T-------------0-------T
A---3----------3----O-------0/2----------O
E---------------------P----3---------3---P
cause you said so
E------0/2-----------------------S
B------------3-------0/1--------T
G---2----------------------------O
D-0-----------0------------------P
A-----------------0---------------
E----------------------------------
E-------------------------------------------
B-------------------------------------------
G---0-----------------S---------------------S
D---------0-----------T---------------------T
A---3-----------------O--------0------------O
E---------------------P----3-3--------------P
These three parts is repeated in various orders. It worls just fine if you play either one
repeatedly all song trough, since there is so little difference. The most used one is PART 2.
Kjetil Nordin




Ваше мнение



Капча