Madonna
Beautiful Stranger
A pretty good song from the new Austin Powers movie.
Normal tuning (EADGBE)
!!!!!!!!!!
Main Riff
!!!!!!!!!!
C#sus9(?), C#
--------------------------
----7---7-----6---6-------
---6--6-----6---6---------
--6--------6---------(then repeat for however long you need it)
-4--------4---------------
--------------------------
!!!!!!!!!
Bridge bit
!!!!!!!!!
-----------------------------------------------
-4---------------------------------------------
-4---------------------5-----------------------
-4-(x6)----------------6--(x6)--(back to main riff)
-2---------------------6-----------------------
-----------------------4-----------------------
I looked into your eyes... and my world came tumbling down
!!!!!!!!!!!!!!!!!!!!!!!!!!!!!!!!!!!!!!!
And at about 2:56 into the song...
!!!!!!!!!!!!!!!!!!!!!!!!!!!!!!!!!!!!!!!
(when theres a sort of airy background)
-------------------------------------------------------------
---11--11----1111-----------9--9--99-------------------------
---11--11----1111--(x2)-----9--9--99--(x2 then back to main)-
---11--11----1111-----------9--9--99-------------------------
---9---9-----9-9------------7--7--77-------------------------
-------------------------------------------------------------
To know you................is to love you.....
!!!!!!!!
Chorus
!!!!!!!!
(strum repeatedley)
----------------------------------
--11--------------9---------------
--11--------------9---------------
--11--------------9---------------
--9---------------7---------(back to main riff)
----------------------------------
dada dah da da dah dah dada dah!!!.....
I use this song to ward off evil at MegaDeath concerts!
~Ned




Ваше мнение



Капча