Song: One Step Beyond
Band: Madness
Album: One Step Beyond
tabbed by:
Gilles Velay ([email protected])

Notation :
q : quarter ^ : triplet
e :
8th

Riff I
======
q q q q q q q q q q q
q
G:---------------|---------5-----||-----------------||
D:---------5-----|-3---6-------6-||*---------5-----*||
A:-3---6-------6-|---------------||*-3---6-------6-*||
E:---------------|---------------||-----------------||

Riff II
=======
q q q q ^ e q q q q ^ e q q q q
G:||---------------------||-------------------|---------------|
D:||*-------------------*||-------------------|-5---3---------|
A:||*-----2---5-------5-*||-----2---5-------2-|---------6---5-|
E:||--3-----------3------||-3-----------3-----|---------------|

Riff III
========
q q q q [x4]
G:||-----------------||
D:||*---------5-----*||
A:||*-3---6-------6-*||
E:||-----------------||

Riff IV
=======
q q q q q q q q
G:||----------------|---------5------||
D:||*---------5-----|-3---6-------6-*||
A:||*-3---6-------6-|---------------*||
E:||----------------|----------------||

----------------------------------------------------------------

Song Structure
==============
Intro
Riff I (x3)
Riff II
Riff I
Riff III (x2)
Riff II
Riff III
Riff II
Riff I (x2)
Riff II
Riff IV (ad lib)





Ваше мнение



Капча