Baggy Trousers
By Madness
normal tuning
listen to the song for timings. :)
intro. listen for drums.
G---||--------------------------------|-----------------------|---------
D---||--------------------------------|-----------------------|---------
A---||--------------------------------|-----3--3--3--3--3--3--|---------
E---||-----------------7--------6--4--|--1--------------------|---------

verse
G------------------||------------------------|--------------------------
D------------------||*-----------------------|--------------------------
A------------------||*-----3--3--3--3--3--3--|--------------------------
E---7--------6--4--||---1--------------------|--------------------------

4x
G------------------------|-----------------------|------------||--------
D------------------------|-----------------------|-----------*||--------
A------6--6--6--6--6--6--|-----8--8--8--8--8--8--|-----------*||--------
E---4--------------------|--6--------------------|--7--6--4---||--------

chorus. You'll hav
G---------6--7--6--7--|-------------------------------------------------
D---------------------|-------------------------------------------------
A---------------------|-------------------------------------------------
E---6--6--------------|-------------------------------------------------

the ascending and descending pthe end of each verse.
G---------------------|--------6--7--6--7--|-----------------------|----
D---------2--3--2--3--|--------------------|-----------------------|----
A---------------------|--------------------|-----------------------|----
E---1--1--------------|--6--6--------------|--8--8--8--7--8--8--8--|----


G---------6--7--6--7--------------------------6--7--6--7--|-------------
D---------------------------2--3--2--3--------------------|-------------
A---------------------------------------------------------|-------------
E---6--6--------------1--1--------------6--6--------------|--7--6--4----

bridge 2x
G---||----------------------------------------------------||------------
D---||*--------------------------------------------------*||------------
A---||*-----5--5--5-----7--7--7-----5--5--5--2--2--0--2--*||------------
E---||----------------------------------------------------||------------


========================================================================
== Created with a demo version of BUCKET O' TAB ==
== tablature creation software for Windows ==
== http://www.his.com/~gse/bucket ==
========================================================================




Ваше мнение



Капча