Artist: The Mad Capusule Markets
Song: Sunny Beach Rd
Album: CiSTm KOnFLiqT
Tabbed by Tom Hackett (FoRx) [email protected]
Tuning: Drop D

Main

|----------------------------------------------|
|----------------------------------------------|
|--7-------------------------------------------|
|--7----7----5----7----------------------------|
|--5----7----5----7----------------------------|
|-------7----5----7----------------------------|

Bridge

|----------------------------------------------|
|----------------------------------------------|
|----------------------------------------------|
|--0--0--1------4------------------------------|
|--0--0--1--x3--4------------------------------|
|--0--0--1------4------------------------------|

End Bridge

|----------------------------------------------|
|----------------------------------------------|
|----------------------------------------------|
|--0--0--1-------------------------------------|
|--0--0--1-------------------------------------|
|--0--0--1-------------------------------------|

Main x 4
Main x 2 (fast)
Main x 8
Main x 2 (fast)
Bridge x 12
End Bridge x lots (listen to song for timing)
Main x 8
End on 557

Great follow up to All The Time In Sunny Beach. Good fun song to play. Next up... Bomb Idea.




Ваше мнение



Капча