#----------------------------------PLEASE NOTE--------------------------------#
#This file is the author's own work and represents their interpretation of the#
#song. You may only use this file for private study, scholarship, or research.#
#-----------------------------------------------------------------------------#
#-- File created with Instab - http://www.pconline.com/~smcarey/instab.html --#
#-----------------------------------------------------------------------------#

Author/Artist: Mad Capsule Markets
Title: Tribe
Album: OCS-DIS
Transcribed by: Shaun Fradley
Email: [email protected]

Drop DTuning

E|------------------------------------------------------------------------------
B|------------------------------------------------------------------------------
G|------------------------------------------------------------------------------
D|----------4-------------------------------------------------------------------
A|----------4-------------------------------------------------------------------
D|----------4-------------------------------------------------------------------
Intro

E|------------------------------------------------------------------------------
B|------------------------------------------------------------------------------
G|------------------------------------------------------------------------------
D|------000-1111///33333h4-44---------------------------------------------------
A|------000-1111///33333h4-44---------------------------------------------------
D|------000-1111///3333h44-44---------------------------------------------------
Main Riff




Ваше мнение



Капча