The Mad Capsule Markets
Midi Surf
OSC-DIS / 020120
Tabbed by Tom Hackett (FoRx) [email protected]
Standard Tuning
Intro
|----------------------------------------------|
|----------------------------------------------|
|----------------------------------------------|
|--2-2-3-2--2-3--------------------------------|x2
|--2-2-3-2--2-3--------------------------------|
|--0-0-1-0--0-1--------------------------------|
then
|----------------------------------------------|
|----------------------------------------------|
|----------------------------------------------|
|--2-------------------------------------------|
|--2--(let ring)-------------------------------|
|--0-------------------------------------------|
Opens
|-------|
|-------|
|-------|
|--2-2--|
|--2-2--|
|--0-0--|
Main Riff (#1)
|----------------|
|----------------|
|----------------|
|--2-3-2--2-3-3--| x3
|--2-3-2--2-3-3--|
|--0-1-0--0-1-1--|
then
|-----------------| On |-----|
|-----------------| 2nd |-----|
|-----------------| play |-----|
|--2-3-3-5-5-7-7--| only |--2--|
|--2-3-3-5-5-7-7--| |--2--|
|--0-1-1-3-3-5-5--| |--0--|
Main Riff (#2)
|-------|
|-------|
|-------|
|--2-2--| x3
|--2-2--|
|--0-0--|
then
|-------------------| On |-----|
|-------------------| 2nd |-----|
|-------------------| play |-----|
|--2-3-3-5-5-7-7-8--| only |--2--|
|--2-3-3-5-5-7-7-8--| |--2--|
|--0-1-1-3-3-5-5-6--| |--0--|
Chorus
|----------------------------------------------------|
|----------------------------------------------------|
|---------------5-5-5-5-5-5--------------------------|
|--3-3-3-3-3-3--5-5-5-5-5-5-7-7-7-7-7-7-8-8-8-8-8-8--|
|--3-3-3-3-3-3--3-3-3-3-3-3-7-7-7-7-7-7-8-8-8-8-8-8--|
|--1-1-1-1-1-1--------------5-5-5-5-5-5-6-6-6-6-6-6--|
Bridge (During bass solo)
|-----------------------| Repeat |-----|
|-----------------------| as |-----|
|-----------------------| needed |-----|
|-----------------------| |--2--| Let ring
|-----------------------| End |--2--|
|--0-0-0-0-0-0-0-0-0-0--| on-> |--0--|
pm * * * * * * * * * *
Intro
Opens
Main Riff (#1) x4
Chorus x2
Main Riff (#1) x2
Main Riff (#2) X2
Opens
Main Riff (#1) x4
Chorus x2
Bridge (as needed)
Chorus x4
Main Riff (#1) x2
Opens (Let both ring)
Great song, one of my favourite MCM tracks. Just had to tab it!
This tab is based on the live version from the album '020120'




Ваше мнение



Капча