INTRO

E|----|
B|----|
G|----|
D|-3--|
A|-3--|
E|----|

VERSE

E|-----------------------------------------------------------------|
B|-----------------------------------------------------------------|
G|-----------------------------------------------------------------|
D|-5--5-5-5-5-5-5--2--2-2-2-2-2-2--2--2-2-2-2-2-2--5--5-5-5-5-5-5--|
A|-3--3-3-3-3-3-3--0--0-0-0-0-0-0--2--2-2-2-2-2-2--3--3-3-3-3-3-3--|
E|-----------------------------------------------------------------|
pm......... pm......... pm......... pm.........

CHORUS

E|----------------------|
B|----------------------|
G|----------------------|
D|-2--2-3-2--2-2-2-3-2--|
A|-2--2-3-2--2-2-2-3-2--|
E|----------------------|
...
MIDDLE BIT

Play 3 times then Part A or Part B
E|------------------- ----------------------- -----------------------
B|------------------- ----------------------- -----------------------
G|------------------- ----------------------- -----------------------
D|3-2-X-X-3-2-X-X-3-2 3-2-X-X-3--2-2-2-3-3-3- 3-2-X-X-3--3-3-3-3-3-3-
A|3-2-X-X-3-2-X-X-3-2 3-2-X-X-3--2-2-2-3-3-3- 3-2-X-X-3--3-3-3-3-3-3-
E|------------------- ----------------------- -----------------------
pm.......... pm.........

Song Structure

Intro X32
Verse X4
Intro X16
Verse X4
Chorus X8
Verse X4
Middle Bit Play three times with part A then once with part B
Verse X4
Chorus X8
Verse X4
Intro X16

END CHORD - let ring

E|----|
B|----|
G|----|
D|-5~-|
A|-3~-|
E|----|




Ваше мнение



Капча