Artist: The Mad Capusule Markets
Song: All The Time In Sunny Beach
Album: OSC-DIS
Tabbed by Tom Hackett (FoRx) [email protected]
Tuning: Drop D

Main

|----------------------------------------------|
|----------------------------------------------|
|----------------------------------------------|
|--6--5--5--6----------------------------------|
|--6--5--5--6----------------------------------|
|--6--5--5--6----------------------------------|

Chorus

|----------------------------------------------|
|----------------------------------------------|
|--5-------------------------------------------|
|--5--3----------------------------------------|
|--3--3----------------------------------------|
|-----3----------------------------------------|

Listen to song for timings.




Ваше мнение



Капча