Machine: Violate

Tabbed by Bcanoon

= slide down
/ = slide up
~ = vibrato (the more there is the longer the vibrato)
PM........ = palm Mute
^ = bend
^______ = bend and hold
[2] = artificial harmonic
Tuned down huge amounts of tones and semitones (probably)
Drop D tuning.

Verse Riff:
PM............................
E:-------------------------------------
B:-------------------------------------
G:-------------------------------------
D:-------------------------------------
A:-0--1---6-6-0--0-/4-3--0-1-0-1-------
D:-0--1--/6-6-0--0-/4-3--0-1-0-1-------

Chorus: Play four times
E:----------------------------------------------------------------
B:----------------------------------------------------------------
G:----------------------------------------------------------------
D:----------------------------6-5-4-(x)-(x)-4---------------------
A:-0---0--3--3--1--0--5--6----4-3-2-(x)-(x)-2-5-------------------
D:-0---0--3--3--1--0--5--6--0-------(x)-(x)---5--5--6~~-6~~-5~-6~-

Verse

Chorus

Middle 8 Riff: Play 4 times
PM..... PM...........
E:-----------------------------------------------------------------
B:-----------------------------------------------------------------
G:-----------------------------------------------------------------
D:-----------------------------------------------------------------
A:-5-4-5-5/6~--5-4-5-5/6~-------5-4-5-5/6~--5-4-5-5/6~-00--33--11--
D:------------------------00000------------------------00--33--11--

After last time:
E:-------
B:-------
G:-------
D:---0---
A:---0---
D:---0---

Bridge Riff A: Play twice with one guitar then
six times with both.
E:-------------------------------------------
B:-------------------------------------------
G:-------------------------------------------
D:-------------------------------5/6---------
A:-5h6----------------5p6--------3/4---------
D:-5h6-00000000000000-5p6-000000-----000000--

Bridge Riff B: Play four times.
E:-------------------------------------
B:-------------------------------------
G:-------------------------------------
D:-------------------------------------
A:-5-5555555555555-6-6666666666666-----
D:-5-5555555555555-6-6666666666666-----

Bridge Riff C:
E:-------------------------------------
B:-------------------------------------
G:-------------------------------------
D:-------------------------------------
A:-0-1-2-3--0-1-2-3--0-1-2-3--0-1-2-3--
D:-0-1-2-3--0-1-2-3--0-1-2-3--0-1-2-3--

Bridge Rif D: One guitar only
E:-------------------------------------------------------------
B:-------------------------------------------------------------
G:-------------------------------------------------------------
D:-------------------------------------------------------------
A:-------------------------------------------------------------
D:-0-1-[2]^-3--0-1-[2]^-3--0-1-[2]^-3--0-1-[2]^-3--0-1-[2]^-3--

End:
E:-------------------------------------
B:-------------------------------------
G:-------------------------------------
D:-------------------------------------
A:-0-1-2-3--0-1-2-3--0-1-2-3--0-1-2-3--
D:-0-1-2-3--0-1-2-3--0-1-2-3--0-1-2-3--




Ваше мнение



Капча