From: [email protected] (Sam Razialruh)
Subject: Tab: Machine Heads "The Rage to Overcome"
"THE RAGE TO OVERCOME" - MACHINE HEAD
from the album "Burn my Eyes!"
Transcribed by
These to lines are Main-Riffs of the Song!
You have to tune down, don`t ask me how !

E-|--------------------|--------------------|---------------------------------|
B-|--------------------|--------------------|---------------------------------|
G-|--------------------|--------------------|---------------------------------|
D-|-------5--------5-5-|-------4--------4-4-|---------------------------------|
A-|-2--5--3---2-5--3-3-|-2--4--2--2--4--2-2-|---------------------------------|
E-|-0--3------0-3------|-0--2-----0--2------|---------------------------------|
2x 2x
E-|------------------------|--------------------------------------------------|
B-|------------------------|--------------------------------------------------|
G-|------------------------|--------------------------------------------------|
D-|------------------------|--------------------------------------------------|
A-|-10--10---13---9-9---13-|-10--10--13---9--9--12--13------------------------|
E-|--8---8---11---7-7---11-|--8---8--11---7--7--10--11------------------------|
\_/ \_/ \_/ \_/ \_/ \_/ \_/ \_/ =Slide!
I`m not that sure about that song!
Sam R.
--
-------------------------------------------
White attack black, black attack back
the f***ing media keeps us blind, blind.
Children on crack, junkies on smack
you wanna close your eyes to hide, hide.
Pollution so dense, sickening existence
new world order, new world decline, decline.
--- Robb Flynn ---
* sam razialruh - ulm germany - [email protected] *




Ваше мнение



Капча