The Frontlines
From The More things Change
By Machine Head
Transcribed By:
Metallihead [email protected]
http://www.geocities.com/sunsetstrip/stage/8273/
*please note, this isnt completly correct, but it should
be a good enough starter, it isnt that difficult of a
song but it kicks ass, enjoy.
|----------------------|
|Tablature Explanations|
|pw= pressed down wah |
|ow= open wah |
|----------------------|
E|-----------------|
B|-----------------|
G|-----------------|
D|8--8-----8--8----|
A|6--6--2--6--6--2-|
E|------2--------2-|
pw pw ow pw pw ow
E|-----------------------------------------|
B|-----------------------------------------|
G|-----------------------------------------|
D|-----------------------------------------|
A|1--0--1--0--1--0--1--0--1--0--1--0--1--2-|
E|1--0--1--0--1--0--1--0--1--0--1--0--1--2-|
E|-----------------------------------------|
B|-----------------------------------------|
G|-----------------------------------------|
D|-----------------------------------------|
A|1--0--1--0--1--0--1--0--1--0--1--0--1--0-|
E|1--0--1--0--1--0--1--0--1--0--1--0--1--0-|
E|-----------------------------------------|
B|-----------------------------------------|
G|-----------------------------------------|
D|-----------------------------------------|
A|1--0--1--0--1--0--1--0--1--0--1--0--1--2-|
E|1--0--1--0--1--0--1--0--1--0--1--0--1--2-|
E|-----------------------------------------|
B|-----------------------------------------|
G|-----------------------------------------|
D|-----------------------------------------|
A|1--0--1--0--1--0--1--0--1--0--1--2--1--0-|
E|1--0--1--0--1--0--1--0--1--0--1--2--1--0-|
E|-----------------------------------------|
B|-----------------------------------------|
G|-----------------------------------------|
D|-----------------------------------------|
A|1--0--1--0--1--0--1--0--1--0--1--0--1--2-|
E|1--0--1--0--1--0--1--0--1--0--1--0--1--2-|
E|-----------------------------------------|
B|-----------------------------------------|
G|-----------------------------------------|
D|-----------------------------------------|
A|1--0--1--0--1--0--1--0--1--0--1--0--1--0-|
E|1--0--1--0--1--0--1--0--1--0--1--0--1--0-|
E|-----------------------------------------|
B|-----------------------------------------|
G|-----------------------------------------|
D|-----------------------------------------|
A|1--0--1--0--1--0--1--0--1--0--1--0--1--2-|
E|1--0--1--0--1--0--1--0--1--0--1--0--1--2-|
E|-----------------------------------------|
B|-----------------------------------------|
G|-----------------------------------------|
D|-----------------------------------------|
A|1--0--1--0--1--0--1--0--1--0--1--2--1--0-|
E|1--0--1--0--1--0--1--0--1--0--1--2--1--0-|
Robb Sings along side bass and drums then:
E|-----------------------------------------|
B|-----------------------------------------|
G|-----------------------------------------|
D|-----------------------------------------|
A|1--0--1--0--1--0--1--0--1--0--1--0--1--2-|
E|1--0--1--0--1--0--1--0--1--0--1--0--1--2-|
E|-----------------------------------------|
B|-----------------------------------------|
G|-----------------------------------------|
D|-----------------------------------------|
A|1--0--1--0--1--0--1--0--1--0--1--0--1--0-|
E|1--0--1--0--1--0--1--0--1--0--1--0--1--0-|
E|-----------------------------------------|
B|-----------------------------------------|
G|-----------------------------------------|
D|-----------------------------------------|
A|1--0--1--0--1--0--1--0--1--0--1--0--1--2-|
E|1--0--1--0--1--0--1--0--1--0--1--0--1--2-|
E|-----------------------------------------|
B|-----------------------------------------|
G|-----------------------------------------|
D|-----------------------------------------|
A|1--0--1--0--1--0--1--0--1--0--1--2--1--0-|
E|1--0--1--0--1--0--1--0--1--0--1--2--1--0-|
E|-----------------------------------------|
B|-----------------------------------------|
G|-----------------------------------------|
D|-----------------------------------------|
A|1--0--1--0--1--0--1--0--1--0--1--0--1--2-|
E|1--0--1--0--1--0--1--0--1--0--1--0--1--2-|
E|-----------------------------------------|
B|-----------------------------------------|
G|-----------------------------------------|
D|-----------------------------------------|
A|1--0--1--0--1--0--1--0--1--0--1--0--1--0-|
E|1--0--1--0--1--0--1--0--1--0--1--0--1--0-|
E|-----------------------------------------|
B|-----------------------------------------|
G|-----------------------------------------|
D|-----------------------------------------|
A|1--0--1--0--1--0--1--0--1--0--1--0--1--2-|
E|1--0--1--0--1--0--1--0--1--0--1--0--1--2-|
E|-----------------------------------------|
B|-----------------------------------------|
G|-----------------------------------------|
D|-----------------------------------------|
A|1--0--1--0--1--0--1--0--1--0--1--2--1--0-|
E|1--0--1--0--1--0--1--0--1--0--1--2--1--0-|
then this new riff is introduced to the proggression
E|--------------------------------|
B|--------------------------------|
G|--------------------------------|
D|--------------------------------|
A|1--1--0--1--4--2--2--2--4--7--7-|
E|1--1--0--1--4--2--2--2--4--7--7-|
After a Few Times they go back to the intro riff again:
E|-----------------|
B|-----------------|
G|-----------------|
D|8--8-----8--8----|
A|6--6--2--6--6--2-|
E|------2--------2-|
pw pw ow pw pw ow
Thats where i will leave off, after this point it is
basically just the 3rd riff with leads.


Ваше мнение



Капча