t. See http://www.olga.net/faq/ for more information. #
Date: Mon, 17 Jan 2000 14:36:20 +0100
From: Fabien Napoli
Subject: m/machine_head/the_burning_red.tab
song : THE BURNING RED from the album "The Burning Red"
artist : MACHINE HEAD
tabbed by : [email protected]
Just one thing to say about this record : KICK ASS !
Here's the sweetest song, easy to play, and... powerful.
Main Theme (let ring)
> this is played during the intro, and the verses
(Em) (Dsus4) (C) (Bsus4)
e-|------------------------------------------------------|
B-|------8--------------8--------------5--------------5--|
G-|------------------------------------------------------|
D-|----9--------------7--------------5--------------4----|
A-|--7--------------5--------------3--------------2------|
E-|------------------------------------------------------|
C#m B A G#
e-|--------------------|
B-|--5----4------------| During the chorus (when Robb sings
G-|--6----4----6----5--| "I'm falling" and "Ooh-ooh-ooh")
D-|--6----4----7----6--| you play these chords
A-|--4----2----7----6--|
E-|------------5----4--|
F#m G# A B
e-|--------------------|
B-|--------------------| This is played once at time 3'32
G-|--2----5----6----8--| between the two last chorus
D-|--4----6----7----9--|
A-|--4----6----7----9--|
E-|--2----4----5----7--|
The song goes like this :
intro - main theme x2
verse - main theme x4
chorus - chords x2
verse - main theme x5
chorus - chords x3
+ 'extra-chords' (3'32)
last chorus - chords ad.lib
Yep, Machine Head rulez...
Check out their website @ http://www.machinehead1.com
Ya can join me by ICQ : 54150557 (Cyco Penguin)


Ваше мнение



Капча