Song: Supercharger
Artist: Machine Head
Album: Supercharger (2001)
Tabbed by: Christian / [email protected]
Here is another great tab. I think the harmonics are done with the wah pedal but close enough since I don't have one. Have fun!
Tuning: B F# B E G# C#
PM - Palm mute notes that have a - under them
* - Harmonic
~ - Vibrato
- Slide down
Intro
|----| |----------------| |-----------|
|-9~-| |----------------| |-----------|
|----| x1 |-*9*9*8*8*7*6*5-| x23 |-----------| x8
|----| |----------------| |-6-6-6-6-9-|
|----| |----------------| |-6-6-6-6-9-|
|----| |----------------| |-6-6-6-6---|
Verse
|----------------|
|----------------|
|-*9*9*8*8*7*6*5-| x8
|----------------|
|----------------|
|----------------|
Pre-chorus
|-----------|
|-----------|
|-----------| x8
|-6-6-6-6-9-|
|-6-6-6-6-9-|
|-6-6-6-6---|
Chorus
|-----------|
|-----------|
|-----------| x8
|-----0-5-6-|
|-----0-5-6-|
|-65-0-5-6-|
Verse
|----------------|
|----------------|
|-*9*9*8*8*7*6*5-| x8
|----------------|
|----------------|
|----------------|
Pre-chorus
|-----------|
|-----------|
|-----------| x8
|-6-6-6-6-9-|
|-6-6-6-6-9-|
|-6-6-6-6---|
Chorus
|-----------|
|-----------|
|-----------| x8
|-----0-5-6-|
|-----0-5-6-|
|-65-0-5-6-|
Bridge
|--------------------------------------|
|--------------------------------------|
|------10-10-10-10---------12-12-12-12-| x12
|-5-6---------------5-5-6--------------|
|-5-6---8--8--8--8--5-5-6--10-10-10-10-|
|-5-6---------------5-5-6--------------|
|------------------|
|------------------|
|-*9*9*8*8*7*6*5*5-| x23
|------------------|
|------------------|
|------------------|
PM ---------------
Pre-chorus - Guitar 1
|-----------|
|-----------|
|-6-6-6-6-9-| x8
|-6-6-6-6-9-|
|-6-6-6-6---|
Pre-chorus - Guitar 2
|------------------------------------------------------------------------------------------|
|------------------------------------------------------------------------------------------|
|*4.75-*3.75-*3.75-*4.75-*3.75-*4.75-*3.75-*4.75-*3.75-*3.75-*3.75-*6.75-*5.75-*5.75-*5.75-| x1
|------------------------------------------------------------------------------------------|
|------------------------------------------------------------------------------------------|
|------------------------------------------------------------------------------------------|
End
|-----------|
|-----------|
|-----------| x21
|-----0-5-6-|
|-----0-5-6-|
|-65-0-5-6-|
Thanks to Machine Head for writing this great song.




Ваше мнение



Капча